  0
SECTION
  2
HEADER
  9
$ACADVER
  1
AC1015
  9
$ACADMAINTVER
 70
     6
  9
$DWGCODEPAGE
  3
ASCII
  9
$INSBASE
 10
0.0
 20
0.0
 30
0.0
  9
$EXTMIN
 10
1.000000000000000E+20
 20
1.000000000000000E+20
 30
1.000000000000000E+20
  9
$EXTMAX
 10
-1.000000000000000E+20
 20
-1.000000000000000E+20
 30
-1.000000000000000E+20
  9
$LIMMIN
 10
0.0
 20
0.0
  9
$LIMMAX
 10
12.0
 20
9.0
  9
$ORTHOMODE
 70
     0
  9
$REGENMODE
 70
     1
  9
$FILLMODE
 70
     1
  9
$QTEXTMODE
 70
     0
  9
$MIRRTEXT
 70
     1
  9
$LTSCALE
 40
1.0
  9
$ATTMODE
 70
     1
  9
$TEXTSIZE
 40
0.2
  9
$TRACEWID
 40
0.05
  9
$TEXTSTYLE
  7
Standard
  9
$CLAYER
  8
0
  9
$CELTYPE
  6
ByLayer
  9
$CECOLOR
 62
   256
  9
$CELTSCALE
 40
1.0
  9
$DISPSILH
 70
     0
  9
$DIMSCALE
 40
1.0
  9
$DIMASZ
 40
0.18
  9
$DIMEXO
 40
0.0625
  9
$DIMDLI
 40
0.38
  9
$DIMRND
 40
0.0
  9
$DIMDLE
 40
0.0
  9
$DIMEXE
 40
0.18
  9
$DIMTP
 40
0.0
  9
$DIMTM
 40
0.0
  9
$DIMTXT
 40
0.18
  9
$DIMCEN
 40
0.09
  9
$DIMTSZ
 40
0.0
  9
$DIMTOL
 70
     0
  9
$DIMLIM
 70
     0
  9
$DIMTIH
 70
     1
  9
$DIMTOH
 70
     1
  9
$DIMSE1
 70
     0
  9
$DIMSE2
 70
     0
  9
$DIMTAD
 70
     0
  9
$DIMZIN
 70
     0
  9
$DIMBLK
  1

  9
$DIMASO
 70
     1
  9
$DIMSHO
 70
     1
  9
$DIMPOST
  1

  9
$DIMAPOST
  1

  9
$DIMALT
 70
     0
  9
$DIMALTD
 70
     2
  9
$DIMALTF
 40
25.4
  9
$DIMLFAC
 40
1.0
  9
$DIMTOFL
 70
     0
  9
$DIMTVP
 40
0.0
  9
$DIMTIX
 70
     0
  9
$DIMSOXD
 70
     0
  9
$DIMSAH
 70
     0
  9
$DIMBLK1
  1

  9
$DIMBLK2
  1

  9
$DIMSTYLE
  2
Standard
  9
$DIMCLRD
 70
     0
  9
$DIMCLRE
 70
     0
  9
$DIMCLRT
 70
     0
  9
$DIMTFAC
 40
1.0
  9
$DIMGAP
 40
0.09
  9
$DIMJUST
 70
     0
  9
$DIMSD1
 70
     0
  9
$DIMSD2
 70
     0
  9
$DIMTOLJ
 70
     1
  9
$DIMTZIN
 70
     0
  9
$DIMALTZ
 70
     0
  9
$DIMALTTZ
 70
     0
  9
$DIMUPT
 70
     0
  9
$DIMDEC
 70
     4
  9
$DIMTDEC
 70
     4
  9
$DIMALTU
 70
     2
  9
$DIMALTTD
 70
     2
  9
$DIMTXSTY
  7
Standard
  9
$DIMAUNIT
 70
     0
  9
$DIMADEC
 70
     0
  9
$DIMALTRND
 40
0.0
  9
$DIMAZIN
 70
     0
  9
$DIMDSEP
 70
    46
  9
$DIMATFIT
 70
     3
  9
$DIMFRAC
 70
     0
  9
$DIMLDRBLK
  1

  9
$DIMLUNIT
 70
     2
  9
$DIMLWD
 70
    -2
  9
$DIMLWE
 70
    -2
  9
$DIMTMOVE
 70
     0
  9
$LUNITS
 70
     2
  9
$LUPREC
 70
     4
  9
$SKETCHINC
 40
0.1
  9
$FILLETRAD
 40
0.5
  9
$AUNITS
 70
     0
  9
$AUPREC
 70
     0
  9
$MENU
  1
.
  9
$ELEVATION
 40
0.0
  9
$PELEVATION
 40
0.0
  9
$THICKNESS
 40
0.0
  9
$LIMCHECK
 70
     0
  9
$CHAMFERA
 40
0.5
  9
$CHAMFERB
 40
0.5
  9
$CHAMFERC
 40
1.0
  9
$CHAMFERD
 40
0.0
  9
$SKPOLY
 70
     0
  9
$TDCREATE
 40
2455735.65708
  9
$TDUCREATE
 40
2455735.323746667
  9
$TDUPDATE
 40
2455735.657080011
  9
$TDUUPDATE
 40
2455735.323746678
  9
$TDINDWG
 40
0.0000000116
  9
$TDUSRTIMER
 40
0.0000000116
  9
$USRTIMER
 70
     1
  9
$ANGBASE
 50
0.0
  9
$ANGDIR
 70
     0
  9
$PDMODE
 70
     0
  9
$PDSIZE
 40
0.0
  9
$PLINEWID
 40
0.0
  9
$SPLFRAME
 70
     0
  9
$SPLINETYPE
 70
     6
  9
$SPLINESEGS
 70
     8
  9
$HANDSEED
  5
4D9
  9
$SURFTAB1
 70
     6
  9
$SURFTAB2
 70
     6
  9
$SURFTYPE
 70
     6
  9
$SURFU
 70
     6
  9
$SURFV
 70
     6
  9
$UCSBASE
  2

  9
$UCSNAME
  2

  9
$UCSORG
 10
0.0
 20
0.0
 30
0.0
  9
$UCSXDIR
 10
1.0
 20
0.0
 30
0.0
  9
$UCSYDIR
 10
0.0
 20
1.0
 30
0.0
  9
$UCSORTHOREF
  2

  9
$UCSORTHOVIEW
 70
     0
  9
$UCSORGTOP
 10
0.0
 20
0.0
 30
0.0
  9
$UCSORGBOTTOM
 10
0.0
 20
0.0
 30
0.0
  9
$UCSORGLEFT
 10
0.0
 20
0.0
 30
0.0
  9
$UCSORGRIGHT
 10
0.0
 20
0.0
 30
0.0
  9
$UCSORGFRONT
 10
0.0
 20
0.0
 30
0.0
  9
$UCSORGBACK
 10
0.0
 20
0.0
 30
0.0
  9
$PUCSBASE
  2

  9
$PUCSNAME
  2

  9
$PUCSORG
 10
0.0
 20
0.0
 30
0.0
  9
$PUCSXDIR
 10
1.0
 20
0.0
 30
0.0
  9
$PUCSYDIR
 10
0.0
 20
1.0
 30
0.0
  9
$PUCSORTHOREF
  2

  9
$PUCSORTHOVIEW
 70
     0
  9
$PUCSORGTOP
 10
0.0
 20
0.0
 30
0.0
  9
$PUCSORGBOTTOM
 10
0.0
 20
0.0
 30
0.0
  9
$PUCSORGLEFT
 10
0.0
 20
0.0
 30
0.0
  9
$PUCSORGRIGHT
 10
0.0
 20
0.0
 30
0.0
  9
$PUCSORGFRONT
 10
0.0
 20
0.0
 30
0.0
  9
$PUCSORGBACK
 10
0.0
 20
0.0
 30
0.0
  9
$USERI1
 70
     0
  9
$USERI2
 70
     0
  9
$USERI3
 70
     0
  9
$USERI4
 70
     0
  9
$USERI5
 70
     0
  9
$USERR1
 40
0.0
  9
$USERR2
 40
0.0
  9
$USERR3
 40
0.0
  9
$USERR4
 40
0.0
  9
$USERR5
 40
0.0
  9
$WORLDVIEW
 70
     1
  9
$SHADEDGE
 70
     3
  9
$SHADEDIF
 70
    70
  9
$TILEMODE
 70
     1
  9
$MAXACTVP
 70
    64
  9
$PINSBASE
 10
0.0
 20
0.0
 30
0.0
  9
$PLIMCHECK
 70
     0
  9
$PEXTMIN
 10
1.000000000000000E+20
 20
1.000000000000000E+20
 30
1.000000000000000E+20
  9
$PEXTMAX
 10
-1.000000000000000E+20
 20
-1.000000000000000E+20
 30
-1.000000000000000E+20
  9
$PLIMMIN
 10
0.0
 20
0.0
  9
$PLIMMAX
 10
12.0
 20
9.0
  9
$UNITMODE
 70
     0
  9
$VISRETAIN
 70
     1
  9
$PLINEGEN
 70
     0
  9
$PSLTSCALE
 70
     1
  9
$TREEDEPTH
 70
  3020
  9
$CMLSTYLE
  2
Standard
  9
$CMLJUST
 70
     0
  9
$CMLSCALE
 40
1.0
  9
$PROXYGRAPHICS
 70
     1
  9
$MEASUREMENT
 70
     0
  9
$CELWEIGHT
370
    -1
  9
$ENDCAPS
280
     0
  9
$JOINSTYLE
280
     0
  9
$LWDISPLAY
290
     1
  9
$INSUNITS
 70
     1
  9
$HYPERLINKBASE
  1

  9
$STYLESHEET
  1

  9
$XEDIT
290
     1
  9
$CEPSNTYPE
380
     0
  9
$PSTYLEMODE
290
     1
  9
$FINGERPRINTGUID
  2
{ECCD2D47-2574-49B2-BCE6-50D05757110A}
  9
$VERSIONGUID
  2
{FAEB1C32-E019-11D5-929B-00C0DF256EC4}
  9
$EXTNAMES
290
     1
  9
$PSVPSCALE
 40
0.0
  9
$OLESTARTUP
290
     0
  0
ENDSEC
  0
SECTION
  2
CLASSES
  0
CLASS
  1
ACDBDICTIONARYWDFLT
  2
AcDbDictionaryWithDefault
  3
ObjectDBX Classes
 90
        0
280
     0
281
     0
  0
CLASS
  1
VISUALSTYLE
  2
AcDbVisualStyle
  3
ObjectDBX Classes
 90
     4095
280
     0
281
     0
  0
CLASS
  1
ACDBPLACEHOLDER
  2
AcDbPlaceHolder
  3
ObjectDBX Classes
 90
        0
280
     0
281
     0
  0
CLASS
  1
LAYOUT
  2
AcDbLayout
  3
ObjectDBX Classes
 90
        0
280
     0
281
     0
  0
ENDSEC
  0
SECTION
  2
TABLES
  0
TABLE
  2
VPORT
  5
8
330
0
100
AcDbSymbolTable
 70
     1
  0
VPORT
  5
29
330
8
100
AcDbSymbolTableRecord
100
AcDbViewportTableRecord
  2
*Active
 70
     0
 10
0.0
 20
0.0
 11
1.0
 21
1.0
 12
0.0
 22
0.0
 13
0.0
 23
0.0
 14
0.5
 24
0.5
 15
0.5
 25
0.5
 16
0.0
 26
0.0
 36
1.0
 17
148.5194562573876
 27
209.9030023245337
 37
0.0
 40
428.5275211154838
 41
0.6810411595372315
 42
50.0
 43
0.0
 44
0.0
 50
0.0
 51
0.0
 71
     0
 72
   100
 73
     1
 74
     3
 75
     0
 76
     0
 77
     0
 78
     0
281
     0
 65
     1
110
0.0
120
0.0
130
0.0
111
1.0
121
0.0
131
0.0
112
0.0
122
1.0
132
0.0
 79
     0
146
0.0
  0
ENDTAB
  0
TABLE
  2
LTYPE
  5
5
330
0
100
AcDbSymbolTable
 70
    13
  0
LTYPE
  5
14
330
5
100
AcDbSymbolTableRecord
100
AcDbLinetypeTableRecord
  2
ByBlock
 70
     0
  3

 72
    65
 73
     0
 40
0.0
  0
LTYPE
  5
15
330
5
100
AcDbSymbolTableRecord
100
AcDbLinetypeTableRecord
  2
ByLayer
 70
     0
  3

 72
    65
 73
     0
 40
0.0
  0
LTYPE
  5
16
330
5
100
AcDbSymbolTableRecord
100
AcDbLinetypeTableRecord
  2
Continuous
 70
     0
  3
Solid line
 72
    65
 73
     0
 40
0.0
  0
LTYPE
  5
145
330
5
100
AcDbSymbolTableRecord
100
AcDbLinetypeTableRecord
  2
AI-Linetype-1
 70
     0
  3
Adobe Illustrator Linetype No. 1
 72
    65
 73
     4
 40
189.0926497756126
 49
118.1829051004519
 74
     0
 49
-23.63658155838691
 74
     0
 49
23.63658155838691
 74
     0
 49
-23.63658155838691
 74
     0
  0
LTYPE
  5
14E
330
5
100
AcDbSymbolTableRecord
100
AcDbLinetypeTableRecord
  2
AI-Linetype-2
 70
     0
  3
Adobe Illustrator Linetype No. 2
 72
    65
 73
     4
 40
3.781852909721244
 49
2.363658021264559
 74
     0
 49
-0.4727316294855615
 74
     0
 49
0.4727316294855615
 74
     0
 49
-0.4727316294855615
 74
     0
  0
LTYPE
  5
157
330
5
100
AcDbSymbolTableRecord
100
AcDbLinetypeTableRecord
  2
AI-Linetype-3
 70
     0
  3
Adobe Illustrator Linetype No. 3
 72
    65
 73
     4
 40
3.781852909721244
 49
2.363658021264559
 74
     0
 49
-0.4727316294855615
 74
     0
 49
0.4727316294855615
 74
     0
 49
-0.4727316294855615
 74
     0
  0
LTYPE
  5
170
330
5
100
AcDbSymbolTableRecord
100
AcDbLinetypeTableRecord
  2
AI-Linetype-4
 70
     0
  3
Adobe Illustrator Linetype No. 4
 72
    65
 73
     4
 40
3.781852909721244
 49
2.363658021264559
 74
     0
 49
-0.4727316294855615
 74
     0
 49
0.4727316294855615
 74
     0
 49
-0.4727316294855615
 74
     0
  0
LTYPE
  5
1A6
330
5
100
AcDbSymbolTableRecord
100
AcDbLinetypeTableRecord
  2
AI-Linetype-5
 70
     0
  3
Adobe Illustrator Linetype No. 5
 72
    65
 73
     4
 40
3.781852909721244
 49
2.363658021264559
 74
     0
 49
-0.4727316294855615
 74
     0
 49
0.4727316294855615
 74
     0
 49
-0.4727316294855615
 74
     0
  0
LTYPE
  5
1AF
330
5
100
AcDbSymbolTableRecord
100
AcDbLinetypeTableRecord
  2
AI-Linetype-6
 70
     0
  3
Adobe Illustrator Linetype No. 6
 72
    65
 73
     4
 40
3.781852909721244
 49
2.363658021264559
 74
     0
 49
-0.4727316294855615
 74
     0
 49
0.4727316294855615
 74
     0
 49
-0.4727316294855615
 74
     0
  0
LTYPE
  5
1C0
330
5
100
AcDbSymbolTableRecord
100
AcDbLinetypeTableRecord
  2
AI-Linetype-7
 70
     0
  3
Adobe Illustrator Linetype No. 7
 72
    65
 73
     4
 40
3.781852909721244
 49
2.363658021264559
 74
     0
 49
-0.4727316294855615
 74
     0
 49
0.4727316294855615
 74
     0
 49
-0.4727316294855615
 74
     0
  0
LTYPE
  5
2AA
330
5
100
AcDbSymbolTableRecord
100
AcDbLinetypeTableRecord
  2
AI-Linetype-8
 70
     0
  3
Adobe Illustrator Linetype No. 8
 72
    65
 73
     4
 40
11.34555860300049
 49
7.090974063793679
 74
     0
 49
-1.418194846402269
 74
     0
 49
1.418194846402269
 74
     0
 49
-1.418194846402269
 74
     0
  0
LTYPE
  5
2B0
330
5
100
AcDbSymbolTableRecord
100
AcDbLinetypeTableRecord
  2
AI-Linetype-9
 70
     0
  3
Adobe Illustrator Linetype No. 9
 72
    65
 73
     2
 40
1.395861091810897
 49
0.9305740612072644
 74
     0
 49
-0.4652870306036322
 74
     0
  0
LTYPE
  5
2B6
330
5
100
AcDbSymbolTableRecord
100
AcDbLinetypeTableRecord
  2
AI-Linetype-10
 70
     0
  3
Adobe Illustrator Linetype No. 10
 72
    65
 73
     2
 40
1.395861091810897
 49
0.9305740612072644
 74
     0
 49
-0.4652870306036322
 74
     0
  0
LTYPE
  5
2F9
330
5
100
AcDbSymbolTableRecord
100
AcDbLinetypeTableRecord
  2
AI-Linetype-11
 70
     0
  3
Adobe Illustrator Linetype No. 11
 72
    65
 73
     4
 40
37.81852968597426
 49
23.63658155838691
 74
     0
 49
-4.727316042529119
 74
     0
 49
4.727316042529119
 74
     0
 49
-4.727316042529119
 74
     0
  0
LTYPE
  5
31A
330
5
100
AcDbSymbolTableRecord
100
AcDbLinetypeTableRecord
  2
AI-Linetype-12
 70
     0
  3
Adobe Illustrator Linetype No. 12
 72
    65
 73
     4
 40
37.81852968597426
 49
23.63658155838691
 74
     0
 49
-4.727316042529119
 74
     0
 49
4.727316042529119
 74
     0
 49
-4.727316042529119
 74
     0
  0
ENDTAB
  0
TABLE
  2
LAYER
  5
2
330
0
100
AcDbSymbolTable
 70
     2
  0
LAYER
  5
10
330
2
100
AcDbSymbolTableRecord
100
AcDbLayerTableRecord
  2
0
 70
     0
 62
     7
  6
Continuous
370
    -3
390
F
  0
LAYER
  5
3B
330
2
100
AcDbSymbolTableRecord
100
AcDbLayerTableRecord
  2
\U+5716\U+5C64 1
 70
     0
 62
     7
  6
Continuous
370
    -3
390
F
  0
ENDTAB
  0
TABLE
  2
STYLE
  5
3
330
0
100
AcDbSymbolTable
 70
     1
  0
STYLE
  5
11
330
3
100
AcDbSymbolTableRecord
100
AcDbTextStyleTableRecord
  2
Standard
 70
     0
 40
0.0
 41
1.0
 50
0.0
 71
     0
 42
0.2
  3
txt
  4

  0
ENDTAB
  0
TABLE
  2
VIEW
  5
6
330
0
100
AcDbSymbolTable
 70
     0
  0
ENDTAB
  0
TABLE
  2
UCS
  5
7
330
0
100
AcDbSymbolTable
 70
     0
  0
ENDTAB
  0
TABLE
  2
APPID
  5
9
330
0
100
AcDbSymbolTable
 70
     1
  0
APPID
  5
12
330
9
100
AcDbSymbolTableRecord
100
AcDbRegAppTableRecord
  2
ACAD
 70
     0
  0
ENDTAB
  0
TABLE
  2
DIMSTYLE
  5
A
330
0
100
AcDbSymbolTable
 70
     1
100
AcDbDimStyleTable
  0
DIMSTYLE
105
27
330
A
100
AcDbSymbolTableRecord
100
AcDbDimStyleTableRecord
  2
Standard
 70
     0
340
11
  0
ENDTAB
  0
TABLE
  2
BLOCK_RECORD
  5
1
330
0
100
AcDbSymbolTable
 70
   139
  0
BLOCK_RECORD
  5
1F
330
1
100
AcDbSymbolTableRecord
100
AcDbBlockTableRecord
  2
*Model_Space
340
22
  0
BLOCK_RECORD
  5
1B
330
1
100
AcDbSymbolTableRecord
100
AcDbBlockTableRecord
  2
*Paper_Space
340
1E
  0
BLOCK_RECORD
  5
23
330
1
100
AcDbSymbolTableRecord
100
AcDbBlockTableRecord
  2
*Paper_Space0
340
26
  0
BLOCK_RECORD
  5
3C
330
1
100
AcDbSymbolTableRecord
100
AcDbBlockTableRecord
  2
block 2
340
0
102
{BLKREFS
331
3D
102
}
  0
BLOCK_RECORD
  5
40
330
1
100
AcDbSymbolTableRecord
100
AcDbBlockTableRecord
  2
block 3
340
0
102
{BLKREFS
331
41
102
}
  0
BLOCK_RECORD
  5
45
330
1
100
AcDbSymbolTableRecord
100
AcDbBlockTableRecord
  2
block 4
340
0
102
{BLKREFS
331
46
102
}
  0
BLOCK_RECORD
  5
4D
330
1
100
AcDbSymbolTableRecord
100
AcDbBlockTableRecord
  2
block 5
340
0
102
{BLKREFS
331
4E
102
}
  0
BLOCK_RECORD
  5
55
330
1
100
AcDbSymbolTableRecord
100
AcDbBlockTableRecord
  2
block 6
340
0
102
{BLKREFS
331
56
102
}
  0
BLOCK_RECORD
  5
60
330
1
100
AcDbSymbolTableRecord
100
AcDbBlockTableRecord
  2
block 7
340
0
102
{BLKREFS
331
61
102
}
  0
BLOCK_RECORD
  5
6B
330
1
100
AcDbSymbolTableRecord
100
AcDbBlockTableRecord
  2
block 8
340
0
102
{BLKREFS
331
6C
102
}
  0
BLOCK_RECORD
  5
73
330
1
100
AcDbSymbolTableRecord
100
AcDbBlockTableRecord
  2
block 9
340
0
102
{BLKREFS
331
74
102
}
  0
BLOCK_RECORD
  5
7B
330
1
100
AcDbSymbolTableRecord
100
AcDbBlockTableRecord
  2
block 10
340
0
102
{BLKREFS
331
7C
102
}
  0
BLOCK_RECORD
  5
80
330
1
100
AcDbSymbolTableRecord
100
AcDbBlockTableRecord
  2
block 11
340
0
102
{BLKREFS
331
81
102
}
  0
BLOCK_RECORD
  5
88
330
1
100
AcDbSymbolTableRecord
100
AcDbBlockTableRecord
  2
block 12
340
0
102
{BLKREFS
331
89
102
}
  0
BLOCK_RECORD
  5
90
330
1
100
AcDbSymbolTableRecord
100
AcDbBlockTableRecord
  2
block 13
340
0
102
{BLKREFS
331
91
102
}
  0
BLOCK_RECORD
  5
98
330
1
100
AcDbSymbolTableRecord
100
AcDbBlockTableRecord
  2
block 14
340
0
102
{BLKREFS
331
99
102
}
  0
BLOCK_RECORD
  5
A0
330
1
100
AcDbSymbolTableRecord
100
AcDbBlockTableRecord
  2
block 15
340
0
102
{BLKREFS
331
A1
102
}
  0
BLOCK_RECORD
  5
A8
330
1
100
AcDbSymbolTableRecord
100
AcDbBlockTableRecord
  2
block 16
340
0
102
{BLKREFS
331
A9
102
}
  0
BLOCK_RECORD
  5
B0
330
1
100
AcDbSymbolTableRecord
100
AcDbBlockTableRecord
  2
block 17
340
0
102
{BLKREFS
331
B1
102
}
  0
BLOCK_RECORD
  5
B5
330
1
100
AcDbSymbolTableRecord
100
AcDbBlockTableRecord
  2
block 18
340
0
102
{BLKREFS
331
B6
102
}
  0
BLOCK_RECORD
  5
BA
330
1
100
AcDbSymbolTableRecord
100
AcDbBlockTableRecord
  2
block 19
340
0
102
{BLKREFS
331
BB
102
}
  0
BLOCK_RECORD
  5
BF
330
1
100
AcDbSymbolTableRecord
100
AcDbBlockTableRecord
  2
block 20
340
0
102
{BLKREFS
331
C0
102
}
  0
BLOCK_RECORD
  5
C4
330
1
100
AcDbSymbolTableRecord
100
AcDbBlockTableRecord
  2
block 21
340
0
102
{BLKREFS
331
C5
102
}
  0
BLOCK_RECORD
  5
C9
330
1
100
AcDbSymbolTableRecord
100
AcDbBlockTableRecord
  2
block 22
340
0
102
{BLKREFS
331
CA
102
}
  0
BLOCK_RECORD
  5
CE
330
1
100
AcDbSymbolTableRecord
100
AcDbBlockTableRecord
  2
block 23
340
0
102
{BLKREFS
331
CF
102
}
  0
BLOCK_RECORD
  5
D3
330
1
100
AcDbSymbolTableRecord
100
AcDbBlockTableRecord
  2
block 24
340
0
102
{BLKREFS
331
D4
102
}
  0
BLOCK_RECORD
  5
DB
330
1
100
AcDbSymbolTableRecord
100
AcDbBlockTableRecord
  2
block 25
340
0
102
{BLKREFS
331
DC
102
}
  0
BLOCK_RECORD
  5
E0
330
1
100
AcDbSymbolTableRecord
100
AcDbBlockTableRecord
  2
block 26
340
0
102
{BLKREFS
331
E1
102
}
  0
BLOCK_RECORD
  5
E8
330
1
100
AcDbSymbolTableRecord
100
AcDbBlockTableRecord
  2
block 27
340
0
102
{BLKREFS
331
E9
102
}
  0
BLOCK_RECORD
  5
ED
330
1
100
AcDbSymbolTableRecord
100
AcDbBlockTableRecord
  2
block 28
340
0
102
{BLKREFS
331
EE
102
}
  0
BLOCK_RECORD
  5
F2
330
1
100
AcDbSymbolTableRecord
100
AcDbBlockTableRecord
  2
block 29
340
0
102
{BLKREFS
331
F3
102
}
  0
BLOCK_RECORD
  5
F7
330
1
100
AcDbSymbolTableRecord
100
AcDbBlockTableRecord
  2
block 30
340
0
102
{BLKREFS
331
F8
102
}
  0
BLOCK_RECORD
  5
FF
330
1
100
AcDbSymbolTableRecord
100
AcDbBlockTableRecord
  2
block 31
340
0
102
{BLKREFS
331
100
102
}
  0
BLOCK_RECORD
  5
104
330
1
100
AcDbSymbolTableRecord
100
AcDbBlockTableRecord
  2
block 32
340
0
102
{BLKREFS
331
105
102
}
  0
BLOCK_RECORD
  5
10C
330
1
100
AcDbSymbolTableRecord
100
AcDbBlockTableRecord
  2
block 33
340
0
102
{BLKREFS
331
10D
102
}
  0
BLOCK_RECORD
  5
111
330
1
100
AcDbSymbolTableRecord
100
AcDbBlockTableRecord
  2
block 34
340
0
102
{BLKREFS
331
112
102
}
  0
BLOCK_RECORD
  5
116
330
1
100
AcDbSymbolTableRecord
100
AcDbBlockTableRecord
  2
block 35
340
0
102
{BLKREFS
331
117
102
}
  0
BLOCK_RECORD
  5
11B
330
1
100
AcDbSymbolTableRecord
100
AcDbBlockTableRecord
  2
block 36
340
0
102
{BLKREFS
331
11C
102
}
  0
BLOCK_RECORD
  5
120
330
1
100
AcDbSymbolTableRecord
100
AcDbBlockTableRecord
  2
block 37
340
0
102
{BLKREFS
331
121
102
}
  0
BLOCK_RECORD
  5
125
330
1
100
AcDbSymbolTableRecord
100
AcDbBlockTableRecord
  2
block 38
340
0
102
{BLKREFS
331
126
102
}
  0
BLOCK_RECORD
  5
12D
330
1
100
AcDbSymbolTableRecord
100
AcDbBlockTableRecord
  2
block 39
340
0
102
{BLKREFS
331
12E
102
}
  0
BLOCK_RECORD
  5
135
330
1
100
AcDbSymbolTableRecord
100
AcDbBlockTableRecord
  2
block 40
340
0
102
{BLKREFS
331
136
102
}
  0
BLOCK_RECORD
  5
13D
330
1
100
AcDbSymbolTableRecord
100
AcDbBlockTableRecord
  2
block 41
340
0
102
{BLKREFS
331
13E
102
}
  0
BLOCK_RECORD
  5
146
330
1
100
AcDbSymbolTableRecord
100
AcDbBlockTableRecord
  2
block 42
340
0
102
{BLKREFS
331
147
102
}
  0
BLOCK_RECORD
  5
14F
330
1
100
AcDbSymbolTableRecord
100
AcDbBlockTableRecord
  2
block 43
340
0
102
{BLKREFS
331
150
102
}
  0
BLOCK_RECORD
  5
158
330
1
100
AcDbSymbolTableRecord
100
AcDbBlockTableRecord
  2
block 44
340
0
102
{BLKREFS
331
159
102
}
  0
BLOCK_RECORD
  5
160
330
1
100
AcDbSymbolTableRecord
100
AcDbBlockTableRecord
  2
block 45
340
0
102
{BLKREFS
331
161
102
}
  0
BLOCK_RECORD
  5
168
330
1
100
AcDbSymbolTableRecord
100
AcDbBlockTableRecord
  2
block 46
340
0
102
{BLKREFS
331
169
102
}
  0
BLOCK_RECORD
  5
171
330
1
100
AcDbSymbolTableRecord
100
AcDbBlockTableRecord
  2
block 47
340
0
102
{BLKREFS
331
172
102
}
  0
BLOCK_RECORD
  5
179
330
1
100
AcDbSymbolTableRecord
100
AcDbBlockTableRecord
  2
block 48
340
0
102
{BLKREFS
331
17A
102
}
  0
BLOCK_RECORD
  5
181
330
1
100
AcDbSymbolTableRecord
100
AcDbBlockTableRecord
  2
block 49
340
0
102
{BLKREFS
331
182
102
}
  0
BLOCK_RECORD
  5
189
330
1
100
AcDbSymbolTableRecord
100
AcDbBlockTableRecord
  2
block 50
340
0
102
{BLKREFS
331
18A
102
}
  0
BLOCK_RECORD
  5
191
330
1
100
AcDbSymbolTableRecord
100
AcDbBlockTableRecord
  2
block 51
340
0
102
{BLKREFS
331
192
102
}
  0
BLOCK_RECORD
  5
199
330
1
100
AcDbSymbolTableRecord
100
AcDbBlockTableRecord
  2
block 52
340
0
102
{BLKREFS
331
19A
102
}
  0
BLOCK_RECORD
  5
19E
330
1
100
AcDbSymbolTableRecord
100
AcDbBlockTableRecord
  2
block 53
340
0
102
{BLKREFS
331
19F
102
}
  0
BLOCK_RECORD
  5
1A7
330
1
100
AcDbSymbolTableRecord
100
AcDbBlockTableRecord
  2
block 54
340
0
102
{BLKREFS
331
1A8
102
}
  0
BLOCK_RECORD
  5
1B0
330
1
100
AcDbSymbolTableRecord
100
AcDbBlockTableRecord
  2
block 55
340
0
102
{BLKREFS
331
1B1
102
}
  0
BLOCK_RECORD
  5
1B8
330
1
100
AcDbSymbolTableRecord
100
AcDbBlockTableRecord
  2
block 56
340
0
102
{BLKREFS
331
1B9
102
}
  0
BLOCK_RECORD
  5
1C1
330
1
100
AcDbSymbolTableRecord
100
AcDbBlockTableRecord
  2
block 57
340
0
102
{BLKREFS
331
1C2
102
}
  0
BLOCK_RECORD
  5
1C6
330
1
100
AcDbSymbolTableRecord
100
AcDbBlockTableRecord
  2
block 58
340
0
102
{BLKREFS
331
1C7
102
}
  0
BLOCK_RECORD
  5
1CE
330
1
100
AcDbSymbolTableRecord
100
AcDbBlockTableRecord
  2
block 59
340
0
102
{BLKREFS
331
1CF
102
}
  0
BLOCK_RECORD
  5
1D6
330
1
100
AcDbSymbolTableRecord
100
AcDbBlockTableRecord
  2
block 60
340
0
102
{BLKREFS
331
1D7
102
}
  0
BLOCK_RECORD
  5
1DE
330
1
100
AcDbSymbolTableRecord
100
AcDbBlockTableRecord
  2
block 61
340
0
102
{BLKREFS
331
1DF
102
}
  0
BLOCK_RECORD
  5
1E6
330
1
100
AcDbSymbolTableRecord
100
AcDbBlockTableRecord
  2
block 62
340
0
102
{BLKREFS
331
1E7
102
}
  0
BLOCK_RECORD
  5
1EE
330
1
100
AcDbSymbolTableRecord
100
AcDbBlockTableRecord
  2
block 63
340
0
102
{BLKREFS
331
1EF
102
}
  0
BLOCK_RECORD
  5
1F6
330
1
100
AcDbSymbolTableRecord
100
AcDbBlockTableRecord
  2
block 64
340
0
102
{BLKREFS
331
1F7
102
}
  0
BLOCK_RECORD
  5
1FE
330
1
100
AcDbSymbolTableRecord
100
AcDbBlockTableRecord
  2
block 65
340
0
102
{BLKREFS
331
1FF
102
}
  0
BLOCK_RECORD
  5
206
330
1
100
AcDbSymbolTableRecord
100
AcDbBlockTableRecord
  2
block 66
340
0
102
{BLKREFS
331
207
102
}
  0
BLOCK_RECORD
  5
250
330
1
100
AcDbSymbolTableRecord
100
AcDbBlockTableRecord
  2
block 67
340
0
102
{BLKREFS
331
251
102
}
  0
BLOCK_RECORD
  5
258
330
1
100
AcDbSymbolTableRecord
100
AcDbBlockTableRecord
  2
block 68
340
0
102
{BLKREFS
331
259
102
}
  0
BLOCK_RECORD
  5
260
330
1
100
AcDbSymbolTableRecord
100
AcDbBlockTableRecord
  2
block 69
340
0
102
{BLKREFS
331
261
102
}
  0
BLOCK_RECORD
  5
268
330
1
100
AcDbSymbolTableRecord
100
AcDbBlockTableRecord
  2
block 70
340
0
102
{BLKREFS
331
269
102
}
  0
BLOCK_RECORD
  5
270
330
1
100
AcDbSymbolTableRecord
100
AcDbBlockTableRecord
  2
block 71
340
0
102
{BLKREFS
331
271
102
}
  0
BLOCK_RECORD
  5
278
330
1
100
AcDbSymbolTableRecord
100
AcDbBlockTableRecord
  2
block 72
340
0
102
{BLKREFS
331
279
102
}
  0
BLOCK_RECORD
  5
280
330
1
100
AcDbSymbolTableRecord
100
AcDbBlockTableRecord
  2
block 73
340
0
102
{BLKREFS
331
281
102
}
  0
BLOCK_RECORD
  5
288
330
1
100
AcDbSymbolTableRecord
100
AcDbBlockTableRecord
  2
block 74
340
0
102
{BLKREFS
331
289
102
}
  0
BLOCK_RECORD
  5
290
330
1
100
AcDbSymbolTableRecord
100
AcDbBlockTableRecord
  2
block 75
340
0
102
{BLKREFS
331
291
102
}
  0
BLOCK_RECORD
  5
298
330
1
100
AcDbSymbolTableRecord
100
AcDbBlockTableRecord
  2
block 76
340
0
102
{BLKREFS
331
299
102
}
  0
BLOCK_RECORD
  5
29D
330
1
100
AcDbSymbolTableRecord
100
AcDbBlockTableRecord
  2
block 77
340
0
102
{BLKREFS
331
29E
102
}
  0
BLOCK_RECORD
  5
2A2
330
1
100
AcDbSymbolTableRecord
100
AcDbBlockTableRecord
  2
block 78
340
0
102
{BLKREFS
331
2A3
102
}
  0
BLOCK_RECORD
  5
2AB
330
1
100
AcDbSymbolTableRecord
100
AcDbBlockTableRecord
  2
block 79
340
0
102
{BLKREFS
331
2AC
102
}
  0
BLOCK_RECORD
  5
2B1
330
1
100
AcDbSymbolTableRecord
100
AcDbBlockTableRecord
  2
block 80
340
0
102
{BLKREFS
331
2B2
102
}
  0
BLOCK_RECORD
  5
2B7
330
1
100
AcDbSymbolTableRecord
100
AcDbBlockTableRecord
  2
block 81
340
0
102
{BLKREFS
331
2B8
102
}
  0
BLOCK_RECORD
  5
2BF
330
1
100
AcDbSymbolTableRecord
100
AcDbBlockTableRecord
  2
block 82
340
0
102
{BLKREFS
331
2C0
102
}
  0
BLOCK_RECORD
  5
2C7
330
1
100
AcDbSymbolTableRecord
100
AcDbBlockTableRecord
  2
block 83
340
0
102
{BLKREFS
331
2C8
102
}
  0
BLOCK_RECORD
  5
2CF
330
1
100
AcDbSymbolTableRecord
100
AcDbBlockTableRecord
  2
block 84
340
0
102
{BLKREFS
331
2D0
102
}
  0
BLOCK_RECORD
  5
2D7
330
1
100
AcDbSymbolTableRecord
100
AcDbBlockTableRecord
  2
block 85
340
0
102
{BLKREFS
331
2D8
102
}
  0
BLOCK_RECORD
  5
2DF
330
1
100
AcDbSymbolTableRecord
100
AcDbBlockTableRecord
  2
block 86
340
0
102
{BLKREFS
331
2E0
102
}
  0
BLOCK_RECORD
  5
2E7
330
1
100
AcDbSymbolTableRecord
100
AcDbBlockTableRecord
  2
block 87
340
0
102
{BLKREFS
331
2E8
102
}
  0
BLOCK_RECORD
  5
2EC
330
1
100
AcDbSymbolTableRecord
100
AcDbBlockTableRecord
  2
block 88
340
0
102
{BLKREFS
331
2ED
102
}
  0
BLOCK_RECORD
  5
2F1
330
1
100
AcDbSymbolTableRecord
100
AcDbBlockTableRecord
  2
block 89
340
0
102
{BLKREFS
331
2F2
102
}
  0
BLOCK_RECORD
  5
2FA
330
1
100
AcDbSymbolTableRecord
100
AcDbBlockTableRecord
  2
block 90
340
0
102
{BLKREFS
331
2FB
102
}
  0
BLOCK_RECORD
  5
302
330
1
100
AcDbSymbolTableRecord
100
AcDbBlockTableRecord
  2
block 91
340
0
102
{BLKREFS
331
303
102
}
  0
BLOCK_RECORD
  5
30A
330
1
100
AcDbSymbolTableRecord
100
AcDbBlockTableRecord
  2
block 92
340
0
102
{BLKREFS
331
30B
102
}
  0
BLOCK_RECORD
  5
312
330
1
100
AcDbSymbolTableRecord
100
AcDbBlockTableRecord
  2
block 93
340
0
102
{BLKREFS
331
313
102
}
  0
BLOCK_RECORD
  5
31B
330
1
100
AcDbSymbolTableRecord
100
AcDbBlockTableRecord
  2
block 94
340
0
102
{BLKREFS
331
31C
102
}
  0
BLOCK_RECORD
  5
320
330
1
100
AcDbSymbolTableRecord
100
AcDbBlockTableRecord
  2
block 95
340
0
102
{BLKREFS
331
321
102
}
  0
BLOCK_RECORD
  5
328
330
1
100
AcDbSymbolTableRecord
100
AcDbBlockTableRecord
  2
block 96
340
0
102
{BLKREFS
331
329
102
}
  0
BLOCK_RECORD
  5
330
330
1
100
AcDbSymbolTableRecord
100
AcDbBlockTableRecord
  2
block 97
340
0
102
{BLKREFS
331
331
102
}
  0
BLOCK_RECORD
  5
335
330
1
100
AcDbSymbolTableRecord
100
AcDbBlockTableRecord
  2
block 98
340
0
102
{BLKREFS
331
336
102
}
  0
BLOCK_RECORD
  5
33D
330
1
100
AcDbSymbolTableRecord
100
AcDbBlockTableRecord
  2
block 99
340
0
102
{BLKREFS
331
33E
102
}
  0
BLOCK_RECORD
  5
345
330
1
100
AcDbSymbolTableRecord
100
AcDbBlockTableRecord
  2
block 100
340
0
102
{BLKREFS
331
346
102
}
  0
BLOCK_RECORD
  5
34D
330
1
100
AcDbSymbolTableRecord
100
AcDbBlockTableRecord
  2
block 101
340
0
102
{BLKREFS
331
34E
102
}
  0
BLOCK_RECORD
  5
352
330
1
100
AcDbSymbolTableRecord
100
AcDbBlockTableRecord
  2
block 102
340
0
102
{BLKREFS
331
353
102
}
  0
BLOCK_RECORD
  5
357
330
1
100
AcDbSymbolTableRecord
100
AcDbBlockTableRecord
  2
block 103
340
0
102
{BLKREFS
331
358
102
}
  0
BLOCK_RECORD
  5
3A3
330
1
100
AcDbSymbolTableRecord
100
AcDbBlockTableRecord
  2
block 104
340
0
102
{BLKREFS
331
3A4
102
}
  0
BLOCK_RECORD
  5
3A7
330
1
100
AcDbSymbolTableRecord
100
AcDbBlockTableRecord
  2
block 105
340
0
102
{BLKREFS
331
3A8
102
}
  0
BLOCK_RECORD
  5
3AB
330
1
100
AcDbSymbolTableRecord
100
AcDbBlockTableRecord
  2
block 106
340
0
102
{BLKREFS
331
3AC
102
}
  0
BLOCK_RECORD
  5
3B3
330
1
100
AcDbSymbolTableRecord
100
AcDbBlockTableRecord
  2
block 107
340
0
102
{BLKREFS
331
3B4
102
}
  0
BLOCK_RECORD
  5
3BB
330
1
100
AcDbSymbolTableRecord
100
AcDbBlockTableRecord
  2
block 108
340
0
102
{BLKREFS
331
3BC
102
}
  0
BLOCK_RECORD
  5
3C3
330
1
100
AcDbSymbolTableRecord
100
AcDbBlockTableRecord
  2
block 109
340
0
102
{BLKREFS
331
3C4
102
}
  0
BLOCK_RECORD
  5
3CB
330
1
100
AcDbSymbolTableRecord
100
AcDbBlockTableRecord
  2
block 110
340
0
102
{BLKREFS
331
3CC
102
}
  0
BLOCK_RECORD
  5
3D3
330
1
100
AcDbSymbolTableRecord
100
AcDbBlockTableRecord
  2
block 111
340
0
102
{BLKREFS
331
3D4
102
}
  0
BLOCK_RECORD
  5
3DE
330
1
100
AcDbSymbolTableRecord
100
AcDbBlockTableRecord
  2
block 112
340
0
102
{BLKREFS
331
3DF
102
}
  0
BLOCK_RECORD
  5
3E9
330
1
100
AcDbSymbolTableRecord
100
AcDbBlockTableRecord
  2
block 113
340
0
102
{BLKREFS
331
3EA
102
}
  0
BLOCK_RECORD
  5
3EE
330
1
100
AcDbSymbolTableRecord
100
AcDbBlockTableRecord
  2
block 114
340
0
102
{BLKREFS
331
3EF
102
}
  0
BLOCK_RECORD
  5
3F6
330
1
100
AcDbSymbolTableRecord
100
AcDbBlockTableRecord
  2
block 115
340
0
102
{BLKREFS
331
3F7
102
}
  0
BLOCK_RECORD
  5
3FE
330
1
100
AcDbSymbolTableRecord
100
AcDbBlockTableRecord
  2
block 116
340
0
102
{BLKREFS
331
3FF
102
}
  0
BLOCK_RECORD
  5
406
330
1
100
AcDbSymbolTableRecord
100
AcDbBlockTableRecord
  2
block 117
340
0
102
{BLKREFS
331
407
102
}
  0
BLOCK_RECORD
  5
446
330
1
100
AcDbSymbolTableRecord
100
AcDbBlockTableRecord
  2
block 118
340
0
102
{BLKREFS
331
447
102
}
  0
BLOCK_RECORD
  5
44B
330
1
100
AcDbSymbolTableRecord
100
AcDbBlockTableRecord
  2
block 119
340
0
102
{BLKREFS
331
44C
102
}
  0
BLOCK_RECORD
  5
453
330
1
100
AcDbSymbolTableRecord
100
AcDbBlockTableRecord
  2
block 120
340
0
102
{BLKREFS
331
454
102
}
  0
BLOCK_RECORD
  5
45B
330
1
100
AcDbSymbolTableRecord
100
AcDbBlockTableRecord
  2
block 121
340
0
102
{BLKREFS
331
45C
102
}
  0
BLOCK_RECORD
  5
463
330
1
100
AcDbSymbolTableRecord
100
AcDbBlockTableRecord
  2
block 122
340
0
102
{BLKREFS
331
464
102
}
  0
BLOCK_RECORD
  5
46B
330
1
100
AcDbSymbolTableRecord
100
AcDbBlockTableRecord
  2
block 123
340
0
102
{BLKREFS
331
46C
102
}
  0
BLOCK_RECORD
  5
470
330
1
100
AcDbSymbolTableRecord
100
AcDbBlockTableRecord
  2
block 124
340
0
102
{BLKREFS
331
471
102
}
  0
BLOCK_RECORD
  5
478
330
1
100
AcDbSymbolTableRecord
100
AcDbBlockTableRecord
  2
block 125
340
0
102
{BLKREFS
331
479
102
}
  0
BLOCK_RECORD
  5
47D
330
1
100
AcDbSymbolTableRecord
100
AcDbBlockTableRecord
  2
block 126
340
0
102
{BLKREFS
331
47E
102
}
  0
BLOCK_RECORD
  5
485
330
1
100
AcDbSymbolTableRecord
100
AcDbBlockTableRecord
  2
block 127
340
0
102
{BLKREFS
331
486
102
}
  0
BLOCK_RECORD
  5
48D
330
1
100
AcDbSymbolTableRecord
100
AcDbBlockTableRecord
  2
block 128
340
0
102
{BLKREFS
331
48E
102
}
  0
BLOCK_RECORD
  5
492
330
1
100
AcDbSymbolTableRecord
100
AcDbBlockTableRecord
  2
block 129
340
0
102
{BLKREFS
331
493
102
}
  0
BLOCK_RECORD
  5
49A
330
1
100
AcDbSymbolTableRecord
100
AcDbBlockTableRecord
  2
block 130
340
0
102
{BLKREFS
331
49B
102
}
  0
BLOCK_RECORD
  5
4A2
330
1
100
AcDbSymbolTableRecord
100
AcDbBlockTableRecord
  2
block 131
340
0
102
{BLKREFS
331
4A3
102
}
  0
BLOCK_RECORD
  5
4A7
330
1
100
AcDbSymbolTableRecord
100
AcDbBlockTableRecord
  2
block 132
340
0
102
{BLKREFS
331
4A8
102
}
  0
BLOCK_RECORD
  5
4AF
330
1
100
AcDbSymbolTableRecord
100
AcDbBlockTableRecord
  2
block 133
340
0
102
{BLKREFS
331
4B0
102
}
  0
BLOCK_RECORD
  5
4B7
330
1
100
AcDbSymbolTableRecord
100
AcDbBlockTableRecord
  2
block 134
340
0
102
{BLKREFS
331
4B8
102
}
  0
BLOCK_RECORD
  5
4BC
330
1
100
AcDbSymbolTableRecord
100
AcDbBlockTableRecord
  2
block 135
340
0
102
{BLKREFS
331
4BD
102
}
  0
BLOCK_RECORD
  5
4C1
330
1
100
AcDbSymbolTableRecord
100
AcDbBlockTableRecord
  2
block 136
340
0
102
{BLKREFS
331
4C2
102
}
  0
BLOCK_RECORD
  5
4C9
330
1
100
AcDbSymbolTableRecord
100
AcDbBlockTableRecord
  2
block 137
340
0
102
{BLKREFS
331
4CA
102
}
  0
BLOCK_RECORD
  5
4CE
330
1
100
AcDbSymbolTableRecord
100
AcDbBlockTableRecord
  2
block 138
340
0
102
{BLKREFS
331
4CF
102
}
  0
BLOCK_RECORD
  5
4D3
330
1
100
AcDbSymbolTableRecord
100
AcDbBlockTableRecord
  2
block 139
340
0
102
{BLKREFS
331
4D4
102
}
  0
ENDTAB
  0
ENDSEC
  0
SECTION
  2
BLOCKS
  0
BLOCK
  5
20
330
1F
100
AcDbEntity
  8
0
100
AcDbBlockBegin
  2
*Model_Space
 70
     0
 71
     0
 10
0.0
 20
0.0
 30
0.0
  3
*Model_Space
  1

  0
ENDBLK
  5
21
330
1F
100
AcDbEntity
  8
0
100
AcDbBlockEnd
  0
BLOCK
  5
1C
330
1B
100
AcDbEntity
 67
     1
  8
0
100
AcDbBlockBegin
  2
*Paper_Space
 70
     0
 71
     0
 10
0.0
 20
0.0
 30
0.0
  3
*Paper_Space
  1

  0
ENDBLK
  5
1D
330
1B
100
AcDbEntity
 67
     1
  8
0
100
AcDbBlockEnd
  0
BLOCK
  5
24
330
23
100
AcDbEntity
  8
0
100
AcDbBlockBegin
  2
*Paper_Space0
 70
     0
 71
     0
 10
0.0
 20
0.0
 30
0.0
  3
*Paper_Space0
  1

  0
ENDBLK
  5
25
330
23
100
AcDbEntity
  8
0
100
AcDbBlockEnd
  0
BLOCK
  5
3E
330
3C
100
AcDbEntity
  8
0
100
AcDbBlockBegin
  2
block 2
 70
     0
 71
     0
 10
0.0
 20
0.0
 30
0.0
  3
block 2
  1

  0
INSERT
  5
41
330
3C
100
AcDbEntity
  8
\U+5716\U+5C64 1
100
AcDbBlockReference
  2
block 3
 10
0.0
 20
0.0
 30
0.0
  0
INSERT
  5
46
330
3C
100
AcDbEntity
  8
\U+5716\U+5C64 1
100
AcDbBlockReference
  2
block 4
 10
0.0
 20
0.0
 30
0.0
  0
INSERT
  5
4E
330
3C
100
AcDbEntity
  8
\U+5716\U+5C64 1
100
AcDbBlockReference
  2
block 5
 10
0.0
 20
0.0
 30
0.0
  0
INSERT
  5
56
330
3C
100
AcDbEntity
  8
\U+5716\U+5C64 1
100
AcDbBlockReference
  2
block 6
 10
0.0
 20
0.0
 30
0.0
  0
INSERT
  5
61
330
3C
100
AcDbEntity
  8
\U+5716\U+5C64 1
100
AcDbBlockReference
  2
block 7
 10
0.0
 20
0.0
 30
0.0
  0
INSERT
  5
6C
330
3C
100
AcDbEntity
  8
\U+5716\U+5C64 1
100
AcDbBlockReference
  2
block 8
 10
0.0
 20
0.0
 30
0.0
  0
INSERT
  5
74
330
3C
100
AcDbEntity
  8
\U+5716\U+5C64 1
100
AcDbBlockReference
  2
block 9
 10
0.0
 20
0.0
 30
0.0
  0
INSERT
  5
7C
330
3C
100
AcDbEntity
  8
\U+5716\U+5C64 1
100
AcDbBlockReference
  2
block 10
 10
0.0
 20
0.0
 30
0.0
  0
INSERT
  5
81
330
3C
100
AcDbEntity
  8
\U+5716\U+5C64 1
100
AcDbBlockReference
  2
block 11
 10
0.0
 20
0.0
 30
0.0
  0
INSERT
  5
89
330
3C
100
AcDbEntity
  8
\U+5716\U+5C64 1
100
AcDbBlockReference
  2
block 12
 10
0.0
 20
0.0
 30
0.0
  0
INSERT
  5
91
330
3C
100
AcDbEntity
  8
\U+5716\U+5C64 1
100
AcDbBlockReference
  2
block 13
 10
0.0
 20
0.0
 30
0.0
  0
INSERT
  5
99
330
3C
100
AcDbEntity
  8
\U+5716\U+5C64 1
100
AcDbBlockReference
  2
block 14
 10
0.0
 20
0.0
 30
0.0
  0
INSERT
  5
A1
330
3C
100
AcDbEntity
  8
\U+5716\U+5C64 1
100
AcDbBlockReference
  2
block 15
 10
0.0
 20
0.0
 30
0.0
  0
INSERT
  5
A9
330
3C
100
AcDbEntity
  8
\U+5716\U+5C64 1
100
AcDbBlockReference
  2
block 16
 10
0.0
 20
0.0
 30
0.0
  0
INSERT
  5
B1
330
3C
100
AcDbEntity
  8
\U+5716\U+5C64 1
100
AcDbBlockReference
  2
block 17
 10
0.0
 20
0.0
 30
0.0
  0
INSERT
  5
B6
330
3C
100
AcDbEntity
  8
\U+5716\U+5C64 1
100
AcDbBlockReference
  2
block 18
 10
0.0
 20
0.0
 30
0.0
  0
INSERT
  5
BB
330
3C
100
AcDbEntity
  8
\U+5716\U+5C64 1
100
AcDbBlockReference
  2
block 19
 10
0.0
 20
0.0
 30
0.0
  0
INSERT
  5
C0
330
3C
100
AcDbEntity
  8
\U+5716\U+5C64 1
100
AcDbBlockReference
  2
block 20
 10
0.0
 20
0.0
 30
0.0
  0
INSERT
  5
C5
330
3C
100
AcDbEntity
  8
\U+5716\U+5C64 1
100
AcDbBlockReference
  2
block 21
 10
0.0
 20
0.0
 30
0.0
  0
INSERT
  5
CA
330
3C
100
AcDbEntity
  8
\U+5716\U+5C64 1
100
AcDbBlockReference
  2
block 22
 10
0.0
 20
0.0
 30
0.0
  0
INSERT
  5
CF
330
3C
100
AcDbEntity
  8
\U+5716\U+5C64 1
100
AcDbBlockReference
  2
block 23
 10
0.0
 20
0.0
 30
0.0
  0
INSERT
  5
D4
330
3C
100
AcDbEntity
  8
\U+5716\U+5C64 1
100
AcDbBlockReference
  2
block 24
 10
0.0
 20
0.0
 30
0.0
  0
INSERT
  5
DC
330
3C
100
AcDbEntity
  8
\U+5716\U+5C64 1
100
AcDbBlockReference
  2
block 25
 10
0.0
 20
0.0
 30
0.0
  0
INSERT
  5
E1
330
3C
100
AcDbEntity
  8
\U+5716\U+5C64 1
100
AcDbBlockReference
  2
block 26
 10
0.0
 20
0.0
 30
0.0
  0
INSERT
  5
E9
330
3C
100
AcDbEntity
  8
\U+5716\U+5C64 1
100
AcDbBlockReference
  2
block 27
 10
0.0
 20
0.0
 30
0.0
  0
INSERT
  5
EE
330
3C
100
AcDbEntity
  8
\U+5716\U+5C64 1
100
AcDbBlockReference
  2
block 28
 10
0.0
 20
0.0
 30
0.0
  0
INSERT
  5
F3
330
3C
100
AcDbEntity
  8
\U+5716\U+5C64 1
100
AcDbBlockReference
  2
block 29
 10
0.0
 20
0.0
 30
0.0
  0
INSERT
  5
F8
330
3C
100
AcDbEntity
  8
\U+5716\U+5C64 1
100
AcDbBlockReference
  2
block 30
 10
0.0
 20
0.0
 30
0.0
  0
INSERT
  5
100
330
3C
100
AcDbEntity
  8
\U+5716\U+5C64 1
100
AcDbBlockReference
  2
block 31
 10
0.0
 20
0.0
 30
0.0
  0
INSERT
  5
105
330
3C
100
AcDbEntity
  8
\U+5716\U+5C64 1
100
AcDbBlockReference
  2
block 32
 10
0.0
 20
0.0
 30
0.0
  0
INSERT
  5
10D
330
3C
100
AcDbEntity
  8
\U+5716\U+5C64 1
100
AcDbBlockReference
  2
block 33
 10
0.0
 20
0.0
 30
0.0
  0
INSERT
  5
112
330
3C
100
AcDbEntity
  8
\U+5716\U+5C64 1
100
AcDbBlockReference
  2
block 34
 10
0.0
 20
0.0
 30
0.0
  0
INSERT
  5
117
330
3C
100
AcDbEntity
  8
\U+5716\U+5C64 1
100
AcDbBlockReference
  2
block 35
 10
0.0
 20
0.0
 30
0.0
  0
INSERT
  5
11C
330
3C
100
AcDbEntity
  8
\U+5716\U+5C64 1
100
AcDbBlockReference
  2
block 36
 10
0.0
 20
0.0
 30
0.0
  0
INSERT
  5
121
330
3C
100
AcDbEntity
  8
\U+5716\U+5C64 1
100
AcDbBlockReference
  2
block 37
 10
0.0
 20
0.0
 30
0.0
  0
INSERT
  5
126
330
3C
100
AcDbEntity
  8
\U+5716\U+5C64 1
100
AcDbBlockReference
  2
block 38
 10
0.0
 20
0.0
 30
0.0
  0
INSERT
  5
12E
330
3C
100
AcDbEntity
  8
\U+5716\U+5C64 1
100
AcDbBlockReference
  2
block 39
 10
0.0
 20
0.0
 30
0.0
  0
INSERT
  5
136
330
3C
100
AcDbEntity
  8
\U+5716\U+5C64 1
100
AcDbBlockReference
  2
block 40
 10
0.0
 20
0.0
 30
0.0
  0
INSERT
  5
13E
330
3C
100
AcDbEntity
  8
\U+5716\U+5C64 1
100
AcDbBlockReference
  2
block 41
 10
0.0
 20
0.0
 30
0.0
  0
INSERT
  5
147
330
3C
100
AcDbEntity
  8
\U+5716\U+5C64 1
100
AcDbBlockReference
  2
block 42
 10
0.0
 20
0.0
 30
0.0
  0
INSERT
  5
150
330
3C
100
AcDbEntity
  8
\U+5716\U+5C64 1
100
AcDbBlockReference
  2
block 43
 10
0.0
 20
0.0
 30
0.0
  0
INSERT
  5
159
330
3C
100
AcDbEntity
  8
\U+5716\U+5C64 1
100
AcDbBlockReference
  2
block 44
 10
0.0
 20
0.0
 30
0.0
  0
INSERT
  5
161
330
3C
100
AcDbEntity
  8
\U+5716\U+5C64 1
100
AcDbBlockReference
  2
block 45
 10
0.0
 20
0.0
 30
0.0
  0
INSERT
  5
169
330
3C
100
AcDbEntity
  8
\U+5716\U+5C64 1
100
AcDbBlockReference
  2
block 46
 10
0.0
 20
0.0
 30
0.0
  0
INSERT
  5
172
330
3C
100
AcDbEntity
  8
\U+5716\U+5C64 1
100
AcDbBlockReference
  2
block 47
 10
0.0
 20
0.0
 30
0.0
  0
INSERT
  5
17A
330
3C
100
AcDbEntity
  8
\U+5716\U+5C64 1
100
AcDbBlockReference
  2
block 48
 10
0.0
 20
0.0
 30
0.0
  0
INSERT
  5
182
330
3C
100
AcDbEntity
  8
\U+5716\U+5C64 1
100
AcDbBlockReference
  2
block 49
 10
0.0
 20
0.0
 30
0.0
  0
INSERT
  5
18A
330
3C
100
AcDbEntity
  8
\U+5716\U+5C64 1
100
AcDbBlockReference
  2
block 50
 10
0.0
 20
0.0
 30
0.0
  0
INSERT
  5
192
330
3C
100
AcDbEntity
  8
\U+5716\U+5C64 1
100
AcDbBlockReference
  2
block 51
 10
0.0
 20
0.0
 30
0.0
  0
INSERT
  5
19A
330
3C
100
AcDbEntity
  8
\U+5716\U+5C64 1
100
AcDbBlockReference
  2
block 52
 10
0.0
 20
0.0
 30
0.0
  0
INSERT
  5
19F
330
3C
100
AcDbEntity
  8
\U+5716\U+5C64 1
100
AcDbBlockReference
  2
block 53
 10
0.0
 20
0.0
 30
0.0
  0
INSERT
  5
1A8
330
3C
100
AcDbEntity
  8
\U+5716\U+5C64 1
100
AcDbBlockReference
  2
block 54
 10
0.0
 20
0.0
 30
0.0
  0
INSERT
  5
1B1
330
3C
100
AcDbEntity
  8
\U+5716\U+5C64 1
100
AcDbBlockReference
  2
block 55
 10
0.0
 20
0.0
 30
0.0
  0
INSERT
  5
1B9
330
3C
100
AcDbEntity
  8
\U+5716\U+5C64 1
100
AcDbBlockReference
  2
block 56
 10
0.0
 20
0.0
 30
0.0
  0
INSERT
  5
1C2
330
3C
100
AcDbEntity
  8
\U+5716\U+5C64 1
100
AcDbBlockReference
  2
block 57
 10
0.0
 20
0.0
 30
0.0
  0
INSERT
  5
1C7
330
3C
100
AcDbEntity
  8
\U+5716\U+5C64 1
100
AcDbBlockReference
  2
block 58
 10
0.0
 20
0.0
 30
0.0
  0
INSERT
  5
1CF
330
3C
100
AcDbEntity
  8
\U+5716\U+5C64 1
100
AcDbBlockReference
  2
block 59
 10
0.0
 20
0.0
 30
0.0
  0
INSERT
  5
1D7
330
3C
100
AcDbEntity
  8
\U+5716\U+5C64 1
100
AcDbBlockReference
  2
block 60
 10
0.0
 20
0.0
 30
0.0
  0
INSERT
  5
1DF
330
3C
100
AcDbEntity
  8
\U+5716\U+5C64 1
100
AcDbBlockReference
  2
block 61
 10
0.0
 20
0.0
 30
0.0
  0
INSERT
  5
1E7
330
3C
100
AcDbEntity
  8
\U+5716\U+5C64 1
100
AcDbBlockReference
  2
block 62
 10
0.0
 20
0.0
 30
0.0
  0
INSERT
  5
1EF
330
3C
100
AcDbEntity
  8
\U+5716\U+5C64 1
100
AcDbBlockReference
  2
block 63
 10
0.0
 20
0.0
 30
0.0
  0
INSERT
  5
1F7
330
3C
100
AcDbEntity
  8
\U+5716\U+5C64 1
100
AcDbBlockReference
  2
block 64
 10
0.0
 20
0.0
 30
0.0
  0
INSERT
  5
1FF
330
3C
100
AcDbEntity
  8
\U+5716\U+5C64 1
100
AcDbBlockReference
  2
block 65
 10
0.0
 20
0.0
 30
0.0
  0
INSERT
  5
207
330
3C
100
AcDbEntity
  8
\U+5716\U+5C64 1
100
AcDbBlockReference
  2
block 66
 10
0.0
 20
0.0
 30
0.0
  0
INSERT
  5
251
330
3C
100
AcDbEntity
  8
\U+5716\U+5C64 1
100
AcDbBlockReference
  2
block 67
 10
0.0
 20
0.0
 30
0.0
  0
INSERT
  5
259
330
3C
100
AcDbEntity
  8
\U+5716\U+5C64 1
100
AcDbBlockReference
  2
block 68
 10
0.0
 20
0.0
 30
0.0
  0
INSERT
  5
261
330
3C
100
AcDbEntity
  8
\U+5716\U+5C64 1
100
AcDbBlockReference
  2
block 69
 10
0.0
 20
0.0
 30
0.0
  0
INSERT
  5
269
330
3C
100
AcDbEntity
  8
\U+5716\U+5C64 1
100
AcDbBlockReference
  2
block 70
 10
0.0
 20
0.0
 30
0.0
  0
INSERT
  5
271
330
3C
100
AcDbEntity
  8
\U+5716\U+5C64 1
100
AcDbBlockReference
  2
block 71
 10
0.0
 20
0.0
 30
0.0
  0
INSERT
  5
279
330
3C
100
AcDbEntity
  8
\U+5716\U+5C64 1
100
AcDbBlockReference
  2
block 72
 10
0.0
 20
0.0
 30
0.0
  0
INSERT
  5
281
330
3C
100
AcDbEntity
  8
\U+5716\U+5C64 1
100
AcDbBlockReference
  2
block 73
 10
0.0
 20
0.0
 30
0.0
  0
INSERT
  5
289
330
3C
100
AcDbEntity
  8
\U+5716\U+5C64 1
100
AcDbBlockReference
  2
block 74
 10
0.0
 20
0.0
 30
0.0
  0
INSERT
  5
291
330
3C
100
AcDbEntity
  8
\U+5716\U+5C64 1
100
AcDbBlockReference
  2
block 75
 10
0.0
 20
0.0
 30
0.0
  0
INSERT
  5
299
330
3C
100
AcDbEntity
  8
\U+5716\U+5C64 1
100
AcDbBlockReference
  2
block 76
 10
0.0
 20
0.0
 30
0.0
  0
INSERT
  5
29E
330
3C
100
AcDbEntity
  8
\U+5716\U+5C64 1
100
AcDbBlockReference
  2
block 77
 10
0.0
 20
0.0
 30
0.0
  0
INSERT
  5
2A3
330
3C
100
AcDbEntity
  8
\U+5716\U+5C64 1
100
AcDbBlockReference
  2
block 78
 10
0.0
 20
0.0
 30
0.0
  0
INSERT
  5
2AC
330
3C
100
AcDbEntity
  8
\U+5716\U+5C64 1
100
AcDbBlockReference
  2
block 79
 10
0.0
 20
0.0
 30
0.0
  0
INSERT
  5
2B2
330
3C
100
AcDbEntity
  8
\U+5716\U+5C64 1
100
AcDbBlockReference
  2
block 80
 10
0.0
 20
0.0
 30
0.0
  0
INSERT
  5
2B8
330
3C
100
AcDbEntity
  8
\U+5716\U+5C64 1
100
AcDbBlockReference
  2
block 81
 10
0.0
 20
0.0
 30
0.0
  0
INSERT
  5
2C0
330
3C
100
AcDbEntity
  8
\U+5716\U+5C64 1
100
AcDbBlockReference
  2
block 82
 10
0.0
 20
0.0
 30
0.0
  0
INSERT
  5
2C8
330
3C
100
AcDbEntity
  8
\U+5716\U+5C64 1
100
AcDbBlockReference
  2
block 83
 10
0.0
 20
0.0
 30
0.0
  0
INSERT
  5
2D0
330
3C
100
AcDbEntity
  8
\U+5716\U+5C64 1
100
AcDbBlockReference
  2
block 84
 10
0.0
 20
0.0
 30
0.0
  0
INSERT
  5
2D8
330
3C
100
AcDbEntity
  8
\U+5716\U+5C64 1
100
AcDbBlockReference
  2
block 85
 10
0.0
 20
0.0
 30
0.0
  0
INSERT
  5
2E0
330
3C
100
AcDbEntity
  8
\U+5716\U+5C64 1
100
AcDbBlockReference
  2
block 86
 10
0.0
 20
0.0
 30
0.0
  0
INSERT
  5
2E8
330
3C
100
AcDbEntity
  8
\U+5716\U+5C64 1
100
AcDbBlockReference
  2
block 87
 10
0.0
 20
0.0
 30
0.0
  0
INSERT
  5
2ED
330
3C
100
AcDbEntity
  8
\U+5716\U+5C64 1
100
AcDbBlockReference
  2
block 88
 10
0.0
 20
0.0
 30
0.0
  0
INSERT
  5
2F2
330
3C
100
AcDbEntity
  8
\U+5716\U+5C64 1
100
AcDbBlockReference
  2
block 89
 10
0.0
 20
0.0
 30
0.0
  0
INSERT
  5
2FB
330
3C
100
AcDbEntity
  8
\U+5716\U+5C64 1
100
AcDbBlockReference
  2
block 90
 10
0.0
 20
0.0
 30
0.0
  0
INSERT
  5
303
330
3C
100
AcDbEntity
  8
\U+5716\U+5C64 1
100
AcDbBlockReference
  2
block 91
 10
0.0
 20
0.0
 30
0.0
  0
INSERT
  5
30B
330
3C
100
AcDbEntity
  8
\U+5716\U+5C64 1
100
AcDbBlockReference
  2
block 92
 10
0.0
 20
0.0
 30
0.0
  0
INSERT
  5
313
330
3C
100
AcDbEntity
  8
\U+5716\U+5C64 1
100
AcDbBlockReference
  2
block 93
 10
0.0
 20
0.0
 30
0.0
  0
INSERT
  5
31C
330
3C
100
AcDbEntity
  8
\U+5716\U+5C64 1
100
AcDbBlockReference
  2
block 94
 10
0.0
 20
0.0
 30
0.0
  0
INSERT
  5
321
330
3C
100
AcDbEntity
  8
\U+5716\U+5C64 1
100
AcDbBlockReference
  2
block 95
 10
0.0
 20
0.0
 30
0.0
  0
INSERT
  5
329
330
3C
100
AcDbEntity
  8
\U+5716\U+5C64 1
100
AcDbBlockReference
  2
block 96
 10
0.0
 20
0.0
 30
0.0
  0
INSERT
  5
331
330
3C
100
AcDbEntity
  8
\U+5716\U+5C64 1
100
AcDbBlockReference
  2
block 97
 10
0.0
 20
0.0
 30
0.0
  0
INSERT
  5
336
330
3C
100
AcDbEntity
  8
\U+5716\U+5C64 1
100
AcDbBlockReference
  2
block 98
 10
0.0
 20
0.0
 30
0.0
  0
INSERT
  5
33E
330
3C
100
AcDbEntity
  8
\U+5716\U+5C64 1
100
AcDbBlockReference
  2
block 99
 10
0.0
 20
0.0
 30
0.0
  0
INSERT
  5
346
330
3C
100
AcDbEntity
  8
\U+5716\U+5C64 1
100
AcDbBlockReference
  2
block 100
 10
0.0
 20
0.0
 30
0.0
  0
INSERT
  5
34E
330
3C
100
AcDbEntity
  8
\U+5716\U+5C64 1
100
AcDbBlockReference
  2
block 101
 10
0.0
 20
0.0
 30
0.0
  0
INSERT
  5
353
330
3C
100
AcDbEntity
  8
\U+5716\U+5C64 1
100
AcDbBlockReference
  2
block 102
 10
0.0
 20
0.0
 30
0.0
  0
INSERT
  5
358
330
3C
100
AcDbEntity
  8
\U+5716\U+5C64 1
100
AcDbBlockReference
  2
block 103
 10
0.0
 20
0.0
 30
0.0
  0
INSERT
  5
3A4
330
3C
100
AcDbEntity
  8
\U+5716\U+5C64 1
100
AcDbBlockReference
  2
block 104
 10
0.0
 20
0.0
 30
0.0
  0
INSERT
  5
407
330
3C
100
AcDbEntity
  8
\U+5716\U+5C64 1
100
AcDbBlockReference
  2
block 117
 10
0.0
 20
0.0
 30
0.0
  0
INSERT
  5
447
330
3C
100
AcDbEntity
  8
\U+5716\U+5C64 1
100
AcDbBlockReference
  2
block 118
 10
0.0
 20
0.0
 30
0.0
  0
INSERT
  5
44C
330
3C
100
AcDbEntity
  8
\U+5716\U+5C64 1
100
AcDbBlockReference
  2
block 119
 10
0.0
 20
0.0
 30
0.0
  0
INSERT
  5
454
330
3C
100
AcDbEntity
  8
\U+5716\U+5C64 1
100
AcDbBlockReference
  2
block 120
 10
0.0
 20
0.0
 30
0.0
  0
INSERT
  5
45C
330
3C
100
AcDbEntity
  8
\U+5716\U+5C64 1
100
AcDbBlockReference
  2
block 121
 10
0.0
 20
0.0
 30
0.0
  0
INSERT
  5
464
330
3C
100
AcDbEntity
  8
\U+5716\U+5C64 1
100
AcDbBlockReference
  2
block 122
 10
0.0
 20
0.0
 30
0.0
  0
INSERT
  5
46C
330
3C
100
AcDbEntity
  8
\U+5716\U+5C64 1
100
AcDbBlockReference
  2
block 123
 10
0.0
 20
0.0
 30
0.0
  0
INSERT
  5
471
330
3C
100
AcDbEntity
  8
\U+5716\U+5C64 1
100
AcDbBlockReference
  2
block 124
 10
0.0
 20
0.0
 30
0.0
  0
INSERT
  5
479
330
3C
100
AcDbEntity
  8
\U+5716\U+5C64 1
100
AcDbBlockReference
  2
block 125
 10
0.0
 20
0.0
 30
0.0
  0
INSERT
  5
47E
330
3C
100
AcDbEntity
  8
\U+5716\U+5C64 1
100
AcDbBlockReference
  2
block 126
 10
0.0
 20
0.0
 30
0.0
  0
INSERT
  5
486
330
3C
100
AcDbEntity
  8
\U+5716\U+5C64 1
100
AcDbBlockReference
  2
block 127
 10
0.0
 20
0.0
 30
0.0
  0
INSERT
  5
48E
330
3C
100
AcDbEntity
  8
\U+5716\U+5C64 1
100
AcDbBlockReference
  2
block 128
 10
0.0
 20
0.0
 30
0.0
  0
INSERT
  5
493
330
3C
100
AcDbEntity
  8
\U+5716\U+5C64 1
100
AcDbBlockReference
  2
block 129
 10
0.0
 20
0.0
 30
0.0
  0
INSERT
  5
49B
330
3C
100
AcDbEntity
  8
\U+5716\U+5C64 1
100
AcDbBlockReference
  2
block 130
 10
0.0
 20
0.0
 30
0.0
  0
INSERT
  5
4A3
330
3C
100
AcDbEntity
  8
\U+5716\U+5C64 1
100
AcDbBlockReference
  2
block 131
 10
0.0
 20
0.0
 30
0.0
  0
INSERT
  5
4A8
330
3C
100
AcDbEntity
  8
\U+5716\U+5C64 1
100
AcDbBlockReference
  2
block 132
 10
0.0
 20
0.0
 30
0.0
  0
INSERT
  5
4B0
330
3C
100
AcDbEntity
  8
\U+5716\U+5C64 1
100
AcDbBlockReference
  2
block 133
 10
0.0
 20
0.0
 30
0.0
  0
INSERT
  5
4B8
330
3C
100
AcDbEntity
  8
\U+5716\U+5C64 1
100
AcDbBlockReference
  2
block 134
 10
0.0
 20
0.0
 30
0.0
  0
INSERT
  5
4BD
330
3C
100
AcDbEntity
  8
\U+5716\U+5C64 1
100
AcDbBlockReference
  2
block 135
 10
0.0
 20
0.0
 30
0.0
  0
INSERT
  5
4C2
330
3C
100
AcDbEntity
  8
\U+5716\U+5C64 1
100
AcDbBlockReference
  2
block 136
 10
0.0
 20
0.0
 30
0.0
  0
INSERT
  5
4CA
330
3C
100
AcDbEntity
  8
\U+5716\U+5C64 1
100
AcDbBlockReference
  2
block 137
 10
0.0
 20
0.0
 30
0.0
  0
INSERT
  5
4CF
330
3C
100
AcDbEntity
  8
\U+5716\U+5C64 1
100
AcDbBlockReference
  2
block 138
 10
0.0
 20
0.0
 30
0.0
  0
ENDBLK
  5
3F
330
3C
100
AcDbEntity
  8
0
100
AcDbBlockEnd
  0
BLOCK
  5
42
330
40
100
AcDbEntity
  8
0
100
AcDbBlockBegin
  2
block 3
 70
     0
 71
     0
 10
0.0
 20
0.0
 30
0.0
  3
block 3
  1

  0
MTEXT
  5
44
330
40
100
AcDbEntity
  8
\U+5716\U+5C64 1
 62
     4
100
AcDbMText
 10
27.91717742675464
 20
3.687632640122191
 30
0.0
 40
4.466755305391086
 41
0.0
 71
     7
 72
     1
  1
\fDFKai-SB|b0|i0|c0|p34;\W1;MM
 73
     1
 44
1.0
  0
ENDBLK
  5
43
330
40
100
AcDbEntity
  8
0
100
AcDbBlockEnd
  0
BLOCK
  5
47
330
45
100
AcDbEntity
  8
0
100
AcDbBlockBegin
  2
block 4
 70
     0
 71
     0
 10
0.0
 20
0.0
 30
0.0
  3
block 4
  1

  0
POLYLINE
  5
49
330
45
100
AcDbEntity
  8
\U+5716\U+5C64 1
 62
     4
370
    25
100
AcDb2dPolyline
 66
     1
 10
0.0
 20
0.0
 30
0.0
  0
VERTEX
  5
4A
330
49
100
AcDbEntity
  8
\U+5716\U+5C64 1
 62
     4
370
    25
100
AcDbVertex
100
AcDb2dVertex
 10
7.072268932431652
 20
19.32148626575233
 30
0.0
  0
VERTEX
  5
4B
330
49
100
AcDbEntity
  8
\U+5716\U+5C64 1
 62
     4
370
    25
100
AcDbVertex
100
AcDb2dVertex
 10
188.7203881224865
 20
19.32148626575233
 30
0.0
  0
SEQEND
  5
4C
330
49
100
AcDbEntity
  8
\U+5716\U+5C64 1
370
    25
  0
ENDBLK
  5
48
330
45
100
AcDbEntity
  8
0
100
AcDbBlockEnd
  0
BLOCK
  5
4F
330
4D
100
AcDbEntity
  8
0
100
AcDbBlockBegin
  2
block 5
 70
     0
 71
     0
 10
0.0
 20
0.0
 30
0.0
  3
block 5
  1

  0
POLYLINE
  5
51
330
4D
100
AcDbEntity
  8
\U+5716\U+5C64 1
 62
     4
370
    25
100
AcDb2dPolyline
 66
     1
 10
0.0
 20
0.0
 30
0.0
  0
VERTEX
  5
52
330
51
100
AcDbEntity
  8
\U+5716\U+5C64 1
 62
     4
370
    25
100
AcDbVertex
100
AcDb2dVertex
 10
7.072268932431652
 20
10.38800326958188
 30
0.0
  0
VERTEX
  5
53
330
51
100
AcDbEntity
  8
\U+5716\U+5C64 1
 62
     4
370
    25
100
AcDbVertex
100
AcDb2dVertex
 10
188.7203881224865
 20
10.38800326958188
 30
0.0
  0
SEQEND
  5
54
330
51
100
AcDbEntity
  8
\U+5716\U+5C64 1
370
    25
  0
ENDBLK
  5
50
330
4D
100
AcDbEntity
  8
0
100
AcDbBlockEnd
  0
BLOCK
  5
57
330
55
100
AcDbEntity
  8
0
100
AcDbBlockBegin
  2
block 6
 70
     0
 71
     0
 10
0.0
 20
0.0
 30
0.0
  3
block 6
  1

  0
POLYLINE
  5
59
330
55
100
AcDbEntity
  8
\U+5716\U+5C64 1
 62
     7
370
    25
100
AcDb2dPolyline
 66
     1
 10
0.0
 20
0.0
 30
0.0
  0
VERTEX
  5
5A
330
59
100
AcDbEntity
  8
\U+5716\U+5C64 1
 62
     7
370
    25
100
AcDbVertex
100
AcDb2dVertex
 10
5.583297681440611
 20
419.840455626647
 30
0.0
  0
VERTEX
  5
5B
330
59
100
AcDbEntity
  8
\U+5716\U+5C64 1
 62
     7
370
    25
100
AcDbVertex
100
AcDb2dVertex
 10
291.4556148333347
 20
419.840455626647
 30
0.0
  0
VERTEX
  5
5C
330
59
100
AcDbEntity
  8
\U+5716\U+5C64 1
 62
     7
370
    25
100
AcDbVertex
100
AcDb2dVertex
 10
291.4556148333347
 20
-0.0344509775796169
 30
0.0
  0
VERTEX
  5
5D
330
59
100
AcDbEntity
  8
\U+5716\U+5C64 1
 62
     7
370
    25
100
AcDbVertex
100
AcDb2dVertex
 10
5.583297681440611
 20
-0.0344509775796169
 30
0.0
  0
VERTEX
  5
5E
330
59
100
AcDbEntity
  8
\U+5716\U+5C64 1
 62
     7
370
    25
100
AcDbVertex
100
AcDb2dVertex
 10
5.583297681440611
 20
419.840455626647
 30
0.0
  0
SEQEND
  5
5F
330
59
100
AcDbEntity
  8
\U+5716\U+5C64 1
370
    25
  0
ENDBLK
  5
58
330
55
100
AcDbEntity
  8
0
100
AcDbBlockEnd
  0
BLOCK
  5
62
330
60
100
AcDbEntity
  8
0
100
AcDbBlockBegin
  2
block 7
 70
     0
 71
     0
 10
0.0
 20
0.0
 30
0.0
  3
block 7
  1

  0
POLYLINE
  5
64
330
60
100
AcDbEntity
  8
\U+5716\U+5C64 1
 62
     4
370
    25
100
AcDb2dPolyline
 66
     1
 10
0.0
 20
0.0
 30
0.0
  0
VERTEX
  5
65
330
64
100
AcDbEntity
  8
\U+5716\U+5C64 1
 62
     4
370
    25
100
AcDbVertex
100
AcDb2dVertex
 10
7.072268932431652
 20
418.351484375656
 30
0.0
  0
VERTEX
  5
66
330
64
100
AcDbEntity
  8
\U+5716\U+5C64 1
 62
     4
370
    25
100
AcDbVertex
100
AcDb2dVertex
 10
289.9666435823436
 20
418.351484375656
 30
0.0
  0
VERTEX
  5
67
330
64
100
AcDbEntity
  8
\U+5716\U+5C64 1
 62
     4
370
    25
100
AcDbVertex
100
AcDb2dVertex
 10
289.9666435823436
 20
1.454175763635629
 30
0.0
  0
VERTEX
  5
68
330
64
100
AcDbEntity
  8
\U+5716\U+5C64 1
 62
     4
370
    25
100
AcDbVertex
100
AcDb2dVertex
 10
7.072268932431652
 20
1.454175763635629
 30
0.0
  0
VERTEX
  5
69
330
64
100
AcDbEntity
  8
\U+5716\U+5C64 1
 62
     4
370
    25
100
AcDbVertex
100
AcDb2dVertex
 10
7.072268932431652
 20
418.351484375656
 30
0.0
  0
SEQEND
  5
6A
330
64
100
AcDbEntity
  8
\U+5716\U+5C64 1
370
    25
  0
ENDBLK
  5
63
330
60
100
AcDbEntity
  8
0
100
AcDbBlockEnd
  0
BLOCK
  5
6D
330
6B
100
AcDbEntity
  8
0
100
AcDbBlockBegin
  2
block 8
 70
     0
 71
     0
 10
0.0
 20
0.0
 30
0.0
  3
block 8
  1

  0
POLYLINE
  5
6F
330
6B
100
AcDbEntity
  8
\U+5716\U+5C64 1
 62
     7
370
    25
100
AcDb2dPolyline
 66
     1
 10
0.0
 20
0.0
 30
0.0
  0
VERTEX
  5
70
330
6F
100
AcDbEntity
  8
\U+5716\U+5C64 1
 62
     7
370
    25
100
AcDbVertex
100
AcDb2dVertex
 10
188.7203881224865
 20
1.454175763635629
 30
0.0
  0
VERTEX
  5
71
330
6F
100
AcDbEntity
  8
\U+5716\U+5C64 1
 62
     7
370
    25
100
AcDbVertex
100
AcDb2dVertex
 10
188.7203881224865
 20
28.25496926192279
 30
0.0
  0
SEQEND
  5
72
330
6F
100
AcDbEntity
  8
\U+5716\U+5C64 1
370
    25
  0
ENDBLK
  5
6E
330
6B
100
AcDbEntity
  8
0
100
AcDbBlockEnd
  0
BLOCK
  5
75
330
73
100
AcDbEntity
  8
0
100
AcDbBlockBegin
  2
block 9
 70
     0
 71
     0
 10
0.0
 20
0.0
 30
0.0
  3
block 9
  1

  0
POLYLINE
  5
77
330
73
100
AcDbEntity
  8
\U+5716\U+5C64 1
 62
     7
370
    25
100
AcDb2dPolyline
 66
     1
 10
0.0
 20
0.0
 30
0.0
  0
VERTEX
  5
78
330
77
100
AcDbEntity
  8
\U+5716\U+5C64 1
 62
     7
370
    25
100
AcDbVertex
100
AcDb2dVertex
 10
7.072268932431652
 20
28.25496926192279
 30
0.0
  0
VERTEX
  5
79
330
77
100
AcDbEntity
  8
\U+5716\U+5C64 1
 62
     7
370
    25
100
AcDbVertex
100
AcDb2dVertex
 10
289.9666435823436
 20
28.25496926192279
 30
0.0
  0
SEQEND
  5
7A
330
77
100
AcDbEntity
  8
\U+5716\U+5C64 1
370
    25
  0
ENDBLK
  5
76
330
73
100
AcDbEntity
  8
0
100
AcDbBlockEnd
  0
BLOCK
  5
7D
330
7B
100
AcDbEntity
  8
0
100
AcDbBlockBegin
  2
block 10
 70
     0
 71
     0
 10
0.0
 20
0.0
 30
0.0
  3
block 10
  1

  0
MTEXT
  5
7F
330
7B
100
AcDbEntity
  8
\U+5716\U+5C64 1
 62
     4
100
AcDbMText
 10
139.5860593886611
 20
3.687632640122191
 30
0.0
 40
4.466755305391086
 41
0.0
 71
     7
 72
     1
  1
\fDFKai-SB|b0|i0|c0|p34;\W1;APPRD
 73
     1
 44
1.0
  0
ENDBLK
  5
7E
330
7B
100
AcDbEntity
  8
0
100
AcDbBlockEnd
  0
BLOCK
  5
82
330
80
100
AcDbEntity
  8
0
100
AcDbBlockBegin
  2
block 11
 70
     0
 71
     0
 10
0.0
 20
0.0
 30
0.0
  3
block 11
  1

  0
POLYLINE
  5
84
330
80
100
AcDbEntity
  8
\U+5716\U+5C64 1
 62
     7
370
    25
100
AcDb2dPolyline
 66
     1
 10
0.0
 20
0.0
 30
0.0
  0
VERTEX
  5
85
330
84
100
AcDbEntity
  8
\U+5716\U+5C64 1
 62
     7
370
    25
100
AcDbVertex
100
AcDb2dVertex
 10
138.0970881376701
 20
10.38800326958188
 30
0.0
  0
VERTEX
  5
86
330
84
100
AcDbEntity
  8
\U+5716\U+5C64 1
 62
     7
370
    25
100
AcDbVertex
100
AcDb2dVertex
 10
138.0970881376701
 20
1.454175763635629
 30
0.0
  0
SEQEND
  5
87
330
84
100
AcDbEntity
  8
\U+5716\U+5C64 1
370
    25
  0
ENDBLK
  5
83
330
80
100
AcDbEntity
  8
0
100
AcDbBlockEnd
  0
BLOCK
  5
8A
330
88
100
AcDbEntity
  8
0
100
AcDbBlockBegin
  2
block 12
 70
     0
 71
     0
 10
0.0
 20
0.0
 30
0.0
  3
block 12
  1

  0
POLYLINE
  5
8C
330
88
100
AcDbEntity
  8
\U+5716\U+5C64 1
 62
     7
370
    25
100
AcDb2dPolyline
 66
     1
 10
0.0
 20
0.0
 30
0.0
  0
VERTEX
  5
8D
330
8C
100
AcDbEntity
  8
\U+5716\U+5C64 1
 62
     7
370
    25
100
AcDbVertex
100
AcDb2dVertex
 10
160.4309678829841
 20
10.38800326958188
 30
0.0
  0
VERTEX
  5
8E
330
8C
100
AcDbEntity
  8
\U+5716\U+5C64 1
 62
     7
370
    25
100
AcDbVertex
100
AcDb2dVertex
 10
160.4309678829841
 20
1.454175763635629
 30
0.0
  0
SEQEND
  5
8F
330
8C
100
AcDbEntity
  8
\U+5716\U+5C64 1
370
    25
  0
ENDBLK
  5
8B
330
88
100
AcDbEntity
  8
0
100
AcDbBlockEnd
  0
BLOCK
  5
92
330
90
100
AcDbEntity
  8
0
100
AcDbBlockBegin
  2
block 13
 70
     0
 71
     0
 10
0.0
 20
0.0
 30
0.0
  3
block 13
  1

  0
POLYLINE
  5
94
330
90
100
AcDbEntity
  8
\U+5716\U+5C64 1
 62
     7
370
    25
100
AcDb2dPolyline
 66
     1
 10
0.0
 20
0.0
 30
0.0
  0
VERTEX
  5
95
330
94
100
AcDbEntity
  8
\U+5716\U+5C64 1
 62
     7
370
    25
100
AcDbVertex
100
AcDb2dVertex
 10
109.8076678981677
 20
1.454175763635629
 30
0.0
  0
VERTEX
  5
96
330
94
100
AcDbEntity
  8
\U+5716\U+5C64 1
 62
     7
370
    25
100
AcDbVertex
100
AcDb2dVertex
 10
109.8076678981677
 20
46.1219352542637
 30
0.0
  0
SEQEND
  5
97
330
94
100
AcDbEntity
  8
\U+5716\U+5C64 1
370
    25
  0
ENDBLK
  5
93
330
90
100
AcDbEntity
  8
0
100
AcDbBlockEnd
  0
BLOCK
  5
9A
330
98
100
AcDbEntity
  8
0
100
AcDbBlockBegin
  2
block 14
 70
     0
 71
     0
 10
0.0
 20
0.0
 30
0.0
  3
block 14
  1

  0
POLYLINE
  5
9C
330
98
100
AcDbEntity
  8
\U+5716\U+5C64 1
 62
     4
370
    25
100
AcDb2dPolyline
 66
     1
 10
0.0
 20
0.0
 30
0.0
  0
VERTEX
  5
9D
330
9C
100
AcDbEntity
  8
\U+5716\U+5C64 1
 62
     4
370
    25
100
AcDbVertex
100
AcDb2dVertex
 10
7.072268932431652
 20
37.18845225809324
 30
0.0
  0
VERTEX
  5
9E
330
9C
100
AcDbEntity
  8
\U+5716\U+5C64 1
 62
     4
370
    25
100
AcDbVertex
100
AcDb2dVertex
 10
109.8076678981677
 20
37.18845225809324
 30
0.0
  0
SEQEND
  5
9F
330
9C
100
AcDbEntity
  8
\U+5716\U+5C64 1
370
    25
  0
ENDBLK
  5
9B
330
98
100
AcDbEntity
  8
0
100
AcDbBlockEnd
  0
BLOCK
  5
A2
330
A0
100
AcDbEntity
  8
0
100
AcDbBlockBegin
  2
block 15
 70
     0
 71
     0
 10
0.0
 20
0.0
 30
0.0
  3
block 15
  1

  0
POLYLINE
  5
A4
330
A0
100
AcDbEntity
  8
\U+5716\U+5C64 1
 62
     4
370
    25
100
AcDb2dPolyline
 66
     1
 10
0.0
 20
0.0
 30
0.0
  0
VERTEX
  5
A5
330
A4
100
AcDbEntity
  8
\U+5716\U+5C64 1
 62
     4
370
    25
100
AcDbVertex
100
AcDb2dVertex
 10
7.072268932431652
 20
46.1219352542637
 30
0.0
  0
VERTEX
  5
A6
330
A4
100
AcDbEntity
  8
\U+5716\U+5C64 1
 62
     4
370
    25
100
AcDbVertex
100
AcDb2dVertex
 10
109.8076678981677
 20
46.1219352542637
 30
0.0
  0
SEQEND
  5
A7
330
A4
100
AcDbEntity
  8
\U+5716\U+5C64 1
370
    25
  0
ENDBLK
  5
A3
330
A0
100
AcDbEntity
  8
0
100
AcDbBlockEnd
  0
BLOCK
  5
AA
330
A8
100
AcDbEntity
  8
0
100
AcDbBlockBegin
  2
block 16
 70
     0
 71
     0
 10
0.0
 20
0.0
 30
0.0
  3
block 16
  1

  0
POLYLINE
  5
AC
330
A8
100
AcDbEntity
  8
\U+5716\U+5C64 1
 62
     7
370
    25
100
AcDb2dPolyline
 66
     1
 10
0.0
 20
0.0
 30
0.0
  0
VERTEX
  5
AD
330
AC
100
AcDbEntity
  8
\U+5716\U+5C64 1
 62
     7
370
    25
100
AcDbVertex
100
AcDb2dVertex
 10
84.49601790575946
 20
46.1219352542637
 30
0.0
  0
VERTEX
  5
AE
330
AC
100
AcDbEntity
  8
\U+5716\U+5C64 1
 62
     7
370
    25
100
AcDbVertex
100
AcDb2dVertex
 10
84.49601790575946
 20
1.454175763635629
 30
0.0
  0
SEQEND
  5
AF
330
AC
100
AcDbEntity
  8
\U+5716\U+5C64 1
370
    25
  0
ENDBLK
  5
AB
330
A8
100
AcDbEntity
  8
0
100
AcDbBlockEnd
  0
BLOCK
  5
B2
330
B0
100
AcDbEntity
  8
0
100
AcDbBlockBegin
  2
block 17
 70
     0
 71
     0
 10
0.0
 20
0.0
 30
0.0
  3
block 17
  1

  0
MTEXT
  5
B4
330
B0
100
AcDbEntity
  8
\U+5716\U+5C64 1
 62
     4
100
AcDbMText
 10
85.9849891567505
 20
12.62111563629264
 30
0.0
 40
4.466755305391086
 41
0.0
 71
     7
 72
     1
  1
\fDFKai-SB|b0|i0|c0|p34;\W1;PROJECT
 73
     1
 44
1.0
  0
ENDBLK
  5
B3
330
B0
100
AcDbEntity
  8
0
100
AcDbBlockEnd
  0
BLOCK
  5
B7
330
B5
100
AcDbEntity
  8
0
100
AcDbBlockBegin
  2
block 18
 70
     0
 71
     0
 10
0.0
 20
0.0
 30
0.0
  3
block 18
  1

  0
MTEXT
  5
B9
330
B5
100
AcDbEntity
  8
\U+5716\U+5C64 1
 62
     4
100
AcDbMText
 10
85.9849891567505
 20
3.687632640122191
 30
0.0
 40
4.466755305391086
 41
0.0
 71
     7
 72
     1
  1
\fDFKai-SB|b0|i0|c0|p34;\W1;DRAWN
 73
     1
 44
1.0
  0
ENDBLK
  5
B8
330
B5
100
AcDbEntity
  8
0
100
AcDbBlockEnd
  0
BLOCK
  5
BC
330
BA
100
AcDbEntity
  8
0
100
AcDbBlockBegin
  2
block 19
 70
     0
 71
     0
 10
0.0
 20
0.0
 30
0.0
  3
block 19
  1

  0
MTEXT
  5
BE
330
BA
100
AcDbEntity
  8
\U+5716\U+5C64 1
 62
     4
100
AcDbMText
 10
85.9849891567505
 20
21.5545986324631
 30
0.0
 40
4.466755305391086
 41
0.0
 71
     7
 72
     1
  1
\fDFKai-SB|b0|i0|c0|p34;\W1;DWG.NO
 73
     1
 44
1.0
  0
ENDBLK
  5
BD
330
BA
100
AcDbEntity
  8
0
100
AcDbBlockEnd
  0
BLOCK
  5
C1
330
BF
100
AcDbEntity
  8
0
100
AcDbBlockBegin
  2
block 20
 70
     0
 71
     0
 10
0.0
 20
0.0
 30
0.0
  3
block 20
  1

  0
MTEXT
  5
C3
330
BF
100
AcDbEntity
  8
\U+5716\U+5C64 1
 62
     4
100
AcDbMText
 10
67.37353753891406
 20
30.48808162863356
 30
0.0
 40
4.466755305391086
 41
0.0
 71
     7
 72
     1
  1
\fDFKai-SB|b0|i0|c0|p34;\W1;APPRD
 73
     1
 44
1.0
  0
ENDBLK
  5
C2
330
BF
100
AcDbEntity
  8
0
100
AcDbBlockEnd
  0
BLOCK
  5
C6
330
C4
100
AcDbEntity
  8
0
100
AcDbBlockBegin
  2
block 21
 70
     0
 71
     0
 10
0.0
 20
0.0
 30
0.0
  3
block 21
  1

  0
MTEXT
  5
C8
330
C4
100
AcDbEntity
  8
\U+5716\U+5C64 1
 62
     4
100
AcDbMText
 10
89.7072450293402
 20
30.48808162863356
 30
0.0
 40
4.466755305391086
 41
0.0
 71
     7
 72
     1
  1
\fDFKai-SB|b0|i0|c0|p34;\W1;DATE
 73
     1
 44
1.0
  0
ENDBLK
  5
C7
330
C4
100
AcDbEntity
  8
0
100
AcDbBlockEnd
  0
BLOCK
  5
CB
330
C9
100
AcDbEntity
  8
0
100
AcDbBlockBegin
  2
block 22
 70
     0
 71
     0
 10
0.0
 20
0.0
 30
0.0
  3
block 22
  1

  0
MTEXT
  5
CD
330
C9
100
AcDbEntity
  8
\U+5716\U+5C64 1
 62
     4
100
AcDbMText
 10
8.561240183422694
 20
30.48808162863356
 30
0.0
 40
4.466755305391086
 41
0.0
 71
     7
 72
     1
  1
\fDFKai-SB|b0|i0|c0|p34;\W1;NO.
 73
     1
 44
1.0
  0
ENDBLK
  5
CC
330
C9
100
AcDbEntity
  8
0
100
AcDbBlockEnd
  0
BLOCK
  5
D0
330
CE
100
AcDbEntity
  8
0
100
AcDbBlockBegin
  2
block 23
 70
     0
 71
     0
 10
0.0
 20
0.0
 30
0.0
  3
block 23
  1

  0
MTEXT
  5
D2
330
CE
100
AcDbEntity
  8
\U+5716\U+5C64 1
 62
     4
100
AcDbMText
 10
8.561240183422694
 20
21.5545986324631
 30
0.0
 40
4.466755305391086
 41
0.0
 71
     7
 72
     1
  1
\fDFKai-SB|b0|i0|c0|p34;\W1;MATL
 73
     1
 44
1.0
  0
ENDBLK
  5
D1
330
CE
100
AcDbEntity
  8
0
100
AcDbBlockEnd
  0
BLOCK
  5
D5
330
D3
100
AcDbEntity
  8
0
100
AcDbBlockBegin
  2
block 24
 70
     0
 71
     0
 10
0.0
 20
0.0
 30
0.0
  3
block 24
  1

  0
POLYLINE
  5
D7
330
D3
100
AcDbEntity
  8
\U+5716\U+5C64 1
 62
     7
370
    25
100
AcDb2dPolyline
 66
     1
 10
0.0
 20
0.0
 30
0.0
  0
VERTEX
  5
D8
330
D7
100
AcDbEntity
  8
\U+5716\U+5C64 1
 62
     7
370
    25
100
AcDbVertex
100
AcDb2dVertex
 10
21.96146467767838
 20
46.1219352542637
 30
0.0
  0
VERTEX
  5
D9
330
D7
100
AcDbEntity
  8
\U+5716\U+5C64 1
 62
     7
370
    25
100
AcDbVertex
100
AcDb2dVertex
 10
21.96146467767838
 20
1.454175763635629
 30
0.0
  0
SEQEND
  5
DA
330
D7
100
AcDbEntity
  8
\U+5716\U+5C64 1
370
    25
  0
ENDBLK
  5
D6
330
D3
100
AcDbEntity
  8
0
100
AcDbBlockEnd
  0
BLOCK
  5
DD
330
DB
100
AcDbEntity
  8
0
100
AcDbBlockBegin
  2
block 25
 70
     0
 71
     0
 10
0.0
 20
0.0
 30
0.0
  3
block 25
  1

  0
MTEXT
  5
DF
330
DB
100
AcDbEntity
  8
\U+5716\U+5C64 1
 62
     4
100
AcDbMText
 10
31.63943329934435
 20
30.48808162863356
 30
0.0
 40
4.466755305391086
 41
0.0
 71
     7
 72
     1
  1
\fDFKai-SB|b0|i0|c0|p34;\W1;CHANGED
 73
     1
 44
1.0
  0
ENDBLK
  5
DE
330
DB
100
AcDbEntity
  8
0
100
AcDbBlockEnd
  0
BLOCK
  5
E2
330
E0
100
AcDbEntity
  8
0
100
AcDbBlockBegin
  2
block 26
 70
     0
 71
     0
 10
0.0
 20
0.0
 30
0.0
  3
block 26
  1

  0
POLYLINE
  5
E4
330
E0
100
AcDbEntity
  8
\U+5716\U+5C64 1
 62
     7
370
    25
100
AcDb2dPolyline
 66
     1
 10
0.0
 20
0.0
 30
0.0
  0
VERTEX
  5
E5
330
E4
100
AcDbEntity
  8
\U+5716\U+5C64 1
 62
     7
370
    25
100
AcDbVertex
100
AcDb2dVertex
 10
65.14008066242751
 20
28.25496926192279
 30
0.0
  0
VERTEX
  5
E6
330
E4
100
AcDbEntity
  8
\U+5716\U+5C64 1
 62
     7
370
    25
100
AcDbVertex
100
AcDb2dVertex
 10
65.14008066242751
 20
46.1219352542637
 30
0.0
  0
SEQEND
  5
E7
330
E4
100
AcDbEntity
  8
\U+5716\U+5C64 1
370
    25
  0
ENDBLK
  5
E3
330
E0
100
AcDbEntity
  8
0
100
AcDbBlockEnd
  0
BLOCK
  5
EA
330
E8
100
AcDbEntity
  8
0
100
AcDbBlockBegin
  2
block 27
 70
     0
 71
     0
 10
0.0
 20
0.0
 30
0.0
  3
block 27
  1

  0
MTEXT
  5
EC
330
E8
100
AcDbEntity
  8
\U+5716\U+5C64 1
 62
     4
100
AcDbMText
 10
8.561240183422694
 20
12.62111563629264
 30
0.0
 40
4.466755305391086
 41
0.0
 71
     7
 72
     1
  1
\fDFKai-SB|b0|i0|c0|p34;\W1;QTY
 73
     1
 44
1.0
  0
ENDBLK
  5
EB
330
E8
100
AcDbEntity
  8
0
100
AcDbBlockEnd
  0
BLOCK
  5
EF
330
ED
100
AcDbEntity
  8
0
100
AcDbBlockBegin
  2
block 28
 70
     0
 71
     0
 10
0.0
 20
0.0
 30
0.0
  3
block 28
  1

  0
MTEXT
  5
F1
330
ED
100
AcDbEntity
  8
\U+5716\U+5C64 1
 62
     4
100
AcDbMText
 10
8.561240183422694
 20
3.687632640122191
 30
0.0
 40
4.466755305391086
 41
0.0
 71
     7
 72
     1
  1
\fDFKai-SB|b0|i0|c0|p34;\W1;UNIT
 73
     1
 44
1.0
  0
ENDBLK
  5
F0
330
ED
100
AcDbEntity
  8
0
100
AcDbBlockEnd
  0
BLOCK
  5
F4
330
F2
100
AcDbEntity
  8
0
100
AcDbBlockBegin
  2
block 29
 70
     0
 71
     0
 10
0.0
 20
0.0
 30
0.0
  3
block 29
  1

  0
MTEXT
  5
F6
330
F2
100
AcDbEntity
  8
\U+5716\U+5C64 1
 62
     4
100
AcDbMText
 10
41.31740192101032
 20
12.62111563629264
 30
0.0
 40
4.466755305391086
 41
0.0
 71
     7
 72
     1
  1
\fDFKai-SB|b0|i0|c0|p34;\W1;SCALE
 73
     1
 44
1.0
  0
ENDBLK
  5
F5
330
F2
100
AcDbEntity
  8
0
100
AcDbBlockEnd
  0
BLOCK
  5
F9
330
F7
100
AcDbEntity
  8
0
100
AcDbBlockBegin
  2
block 30
 70
     0
 71
     0
 10
0.0
 20
0.0
 30
0.0
  3
block 30
  1

  0
POLYLINE
  5
FB
330
F7
100
AcDbEntity
  8
\U+5716\U+5C64 1
 62
     7
370
    25
100
AcDb2dPolyline
 66
     1
 10
0.0
 20
0.0
 30
0.0
  0
VERTEX
  5
FC
330
FB
100
AcDbEntity
  8
\U+5716\U+5C64 1
 62
     7
370
    25
100
AcDbVertex
100
AcDb2dVertex
 10
57.69556891724809
 20
1.454175763635629
 30
0.0
  0
VERTEX
  5
FD
330
FB
100
AcDbEntity
  8
\U+5716\U+5C64 1
 62
     7
370
    25
100
AcDbVertex
100
AcDb2dVertex
 10
57.69556891724809
 20
19.32148626575233
 30
0.0
  0
SEQEND
  5
FE
330
FB
100
AcDbEntity
  8
\U+5716\U+5C64 1
370
    25
  0
ENDBLK
  5
FA
330
F7
100
AcDbEntity
  8
0
100
AcDbBlockEnd
  0
BLOCK
  5
101
330
FF
100
AcDbEntity
  8
0
100
AcDbBlockBegin
  2
block 31
 70
     0
 71
     0
 10
0.0
 20
0.0
 30
0.0
  3
block 31
  1

  0
MTEXT
  5
103
330
FF
100
AcDbEntity
  8
\U+5716\U+5C64 1
 62
     4
100
AcDbMText
 10
41.31740192101032
 20
3.687632640122191
 30
0.0
 40
4.466755305391086
 41
0.0
 71
     7
 72
     1
  1
\fDFKai-SB|b0|i0|c0|p34;\W1;DATE
 73
     1
 44
1.0
  0
ENDBLK
  5
102
330
FF
100
AcDbEntity
  8
0
100
AcDbBlockEnd
  0
BLOCK
  5
106
330
104
100
AcDbEntity
  8
0
100
AcDbBlockBegin
  2
block 32
 70
     0
 71
     0
 10
0.0
 20
0.0
 30
0.0
  3
block 32
  1

  0
POLYLINE
  5
108
330
104
100
AcDbEntity
  8
\U+5716\U+5C64 1
 62
     7
370
    25
100
AcDb2dPolyline
 66
     1
 10
0.0
 20
0.0
 30
0.0
  0
VERTEX
  5
109
330
108
100
AcDbEntity
  8
\U+5716\U+5C64 1
 62
     7
370
    25
100
AcDbVertex
100
AcDb2dVertex
 10
39.82843067001929
 20
1.454175763635629
 30
0.0
  0
VERTEX
  5
10A
330
108
100
AcDbEntity
  8
\U+5716\U+5C64 1
 62
     7
370
    25
100
AcDbVertex
100
AcDb2dVertex
 10
39.82843067001929
 20
19.32148626575233
 30
0.0
  0
SEQEND
  5
10B
330
108
100
AcDbEntity
  8
\U+5716\U+5C64 1
370
    25
  0
ENDBLK
  5
107
330
104
100
AcDbEntity
  8
0
100
AcDbBlockEnd
  0
BLOCK
  5
10E
330
10C
100
AcDbEntity
  8
0
100
AcDbBlockBegin
  2
block 33
 70
     0
 71
     0
 10
0.0
 20
0.0
 30
0.0
  3
block 33
  1

  0
MTEXT
  5
110
330
10C
100
AcDbEntity
  8
\U+5716\U+5C64 1
 62
     4
100
AcDbMText
 10
58.41611111332578
 20
3.687632640122191
 30
0.0
 40
4.466755305391086
 41
0.0
 71
     7
 72
     1
  1
\fDFKai-SB|b0|i0|c0|p34;\W1;03,10,01
 73
     1
 44
1.0
  0
ENDBLK
  5
10F
330
10C
100
AcDbEntity
  8
0
100
AcDbBlockEnd
  0
BLOCK
  5
113
330
111
100
AcDbEntity
  8
0
100
AcDbBlockBegin
  2
block 34
 70
     0
 71
     0
 10
0.0
 20
0.0
 30
0.0
  3
block 34
  1

  0
MTEXT
  5
115
330
111
100
AcDbEntity
  8
\U+5716\U+5C64 1
 62
     4
100
AcDbMText
 10
65.14008066242751
 20
12.62111563629264
 30
0.0
 40
4.466755305391086
 41
0.0
 71
     7
 72
     1
  1
\fDFKai-SB|b0|i0|c0|p34;\W1;2:1
 73
     1
 44
1.0
  0
ENDBLK
  5
114
330
111
100
AcDbEntity
  8
0
100
AcDbBlockEnd
  0
BLOCK
  5
118
330
116
100
AcDbEntity
  8
0
100
AcDbBlockBegin
  2
block 35
 70
     0
 71
     0
 10
0.0
 20
0.0
 30
0.0
  3
block 35
  1

  0
MTEXT
  5
11A
330
116
100
AcDbEntity
  8
\U+5716\U+5C64 1
 62
     4
100
AcDbMText
 10
113.8680601157013
 20
3.687632640122191
 30
0.0
 40
4.466755305391086
 41
0.0
 71
     7
 72
     1
  1
\fDFKai-SB|b0|i0|c0|p34;\W1;Jemmy
 73
     1
 44
1.0
  0
ENDBLK
  5
119
330
116
100
AcDbEntity
  8
0
100
AcDbBlockEnd
  0
BLOCK
  5
11D
330
11B
100
AcDbEntity
  8
0
100
AcDbBlockBegin
  2
block 36
 70
     0
 71
     0
 10
0.0
 20
0.0
 30
0.0
  3
block 36
  1

  0
MTEXT
  5
11F
330
11B
100
AcDbEntity
  8
\U+5716\U+5C64 1
 62
     4
100
AcDbMText
 10
112.0411247746542
 20
21.5545986324631
 30
0.0
 40
4.466755305391086
 41
0.0
 71
     7
 72
     1
  1
\fDFKai-SB|b0|i0|c0|p34;\W1;99401-251
 73
     1
 44
1.0
  0
ENDBLK
  5
11E
330
11B
100
AcDbEntity
  8
0
100
AcDbBlockEnd
  0
BLOCK
  5
122
330
120
100
AcDbEntity
  8
0
100
AcDbBlockBegin
  2
block 37
 70
     0
 71
     0
 10
0.0
 20
0.0
 30
0.0
  3
block 37
  1

  0
MTEXT
  5
124
330
120
100
AcDbEntity
  8
\U+5716\U+5C64 1
 62
     4
100
AcDbMText
 10
112.0411247746542
 20
12.62111563629264
 30
0.0
 40
3.722296164084579
 41
0.0
 71
     7
 72
     1
  1
\fDFKai-SB|b0|i0|c0|p34;\W1;N9MT11T3CT NC60 \U+842C\U+7528\U+947D\U+5200\U+7247
 73
     1
 44
1.0
  0
ENDBLK
  5
123
330
120
100
AcDbEntity
  8
0
100
AcDbBlockEnd
  0
BLOCK
  5
127
330
125
100
AcDbEntity
  8
0
100
AcDbBlockBegin
  2
block 38
 70
     0
 71
     0
 10
0.0
 20
0.0
 30
0.0
  3
block 38
  1

  0
POLYLINE
  5
129
330
125
100
AcDbEntity
  8
\U+5716\U+5C64 1
 62
     6
370
    25
100
AcDb2dPolyline
 66
     1
 10
0.0
 20
0.0
 30
0.0
  0
VERTEX
  5
12A
330
129
100
AcDbEntity
  8
\U+5716\U+5C64 1
 62
     6
370
    25
100
AcDbVertex
100
AcDb2dVertex
 10
77.73019041889849
 20
236.4864962817374
 30
0.0
  0
VERTEX
  5
12B
330
129
100
AcDbEntity
  8
\U+5716\U+5C64 1
 62
     6
370
    25
100
AcDbVertex
100
AcDb2dVertex
 10
77.73019041889849
 20
230.5307835326612
 30
0.0
  0
SEQEND
  5
12C
330
129
100
AcDbEntity
  8
\U+5716\U+5C64 1
370
    25
  0
ENDBLK
  5
128
330
125
100
AcDbEntity
  8
0
100
AcDbBlockEnd
  0
BLOCK
  5
12F
330
12D
100
AcDbEntity
  8
0
100
AcDbBlockBegin
  2
block 39
 70
     0
 71
     0
 10
0.0
 20
0.0
 30
0.0
  3
block 39
  1

  0
POLYLINE
  5
131
330
12D
100
AcDbEntity
  8
\U+5716\U+5C64 1
 62
     6
370
    25
100
AcDb2dPolyline
 66
     1
 10
0.0
 20
0.0
 30
0.0
  0
VERTEX
  5
132
330
131
100
AcDbEntity
  8
\U+5716\U+5C64 1
 62
     6
370
    25
100
AcDbVertex
100
AcDb2dVertex
 10
65.84959854567971
 20
243.3355228794532
 30
0.0
  0
VERTEX
  5
133
330
131
100
AcDbEntity
  8
\U+5716\U+5C64 1
 62
     6
370
    25
100
AcDbVertex
100
AcDb2dVertex
 10
102.7131780851972
 20
243.3355228794532
 30
0.0
  0
SEQEND
  5
134
330
131
100
AcDbEntity
  8
\U+5716\U+5C64 1
370
    25
  0
ENDBLK
  5
130
330
12D
100
AcDbEntity
  8
0
100
AcDbBlockEnd
  0
BLOCK
  5
137
330
135
100
AcDbEntity
  8
0
100
AcDbBlockBegin
  2
block 40
 70
     0
 71
     0
 10
0.0
 20
0.0
 30
0.0
  3
block 40
  1

  0
POLYLINE
  5
139
330
135
100
AcDbEntity
  8
\U+5716\U+5C64 1
 62
     6
370
    25
100
AcDb2dPolyline
 66
     1
 10
0.0
 20
0.0
 30
0.0
  0
VERTEX
  5
13A
330
139
100
AcDbEntity
  8
\U+5716\U+5C64 1
 62
     6
370
    25
100
AcDbVertex
100
AcDb2dVertex
 10
72.51345113890501
 20
230.5307835326612
 30
0.0
  0
VERTEX
  5
13B
330
139
100
AcDbEntity
  8
\U+5716\U+5C64 1
 62
     6
370
    25
100
AcDbVertex
100
AcDb2dVertex
 10
96.04932549197187
 20
230.5307835326612
 30
0.0
  0
SEQEND
  5
13C
330
139
100
AcDbEntity
  8
\U+5716\U+5C64 1
370
    25
  0
ENDBLK
  5
138
330
135
100
AcDbEntity
  8
0
100
AcDbBlockEnd
  0
BLOCK
  5
13F
330
13D
100
AcDbEntity
  8
0
100
AcDbBlockBegin
  2
block 41
 70
     0
 71
     0
 10
0.0
 20
0.0
 30
0.0
  3
block 41
  1

  0
POLYLINE
  5
141
330
13D
100
AcDbEntity
  8
\U+5716\U+5C64 1
  6
AI-Linetype-1
 62
     4
370
    25
100
AcDb2dPolyline
 66
     1
 10
0.0
 20
0.0
 30
0.0
  0
VERTEX
  5
142
330
141
100
AcDbEntity
  8
\U+5716\U+5C64 1
  6
AI-Linetype-1
 62
     4
370
    25
100
AcDbVertex
100
AcDb2dVertex
 10
84.28138831543843
 20
248.5732772557702
 30
0.0
  0
VERTEX
  5
143
330
141
100
AcDbEntity
  8
\U+5716\U+5C64 1
  6
AI-Linetype-1
 62
     4
370
    25
100
AcDbVertex
100
AcDb2dVertex
 10
84.28138831543843
 20
224.750598514353
 30
0.0
  0
SEQEND
  5
144
330
141
100
AcDbEntity
  8
\U+5716\U+5C64 1
  6
AI-Linetype-1
370
    25
  0
ENDBLK
  5
140
330
13D
100
AcDbEntity
  8
0
100
AcDbBlockEnd
  0
BLOCK
  5
148
330
146
100
AcDbEntity
  8
0
100
AcDbBlockBegin
  2
block 42
 70
     0
 71
     0
 10
0.0
 20
0.0
 30
0.0
  3
block 42
  1

  0
POLYLINE
  5
14A
330
146
100
AcDbEntity
  8
\U+5716\U+5C64 1
  6
AI-Linetype-2
 62
     4
370
    25
100
AcDb2dPolyline
 66
     1
 10
0.0
 20
0.0
 30
0.0
  0
VERTEX
  5
14B
330
14A
100
AcDbEntity
  8
\U+5716\U+5C64 1
  6
AI-Linetype-2
 62
     4
370
    25
100
AcDbVertex
100
AcDb2dVertex
 10
58.11294251062515
 20
246.5243053642225
 30
0.0
  0
VERTEX
  5
14C
330
14A
100
AcDbEntity
  8
\U+5716\U+5C64 1
  6
AI-Linetype-2
 62
     4
370
    25
100
AcDbVertex
100
AcDb2dVertex
 10
76.34009347356096
 20
226.2809109384396
 30
0.0
  0
SEQEND
  5
14D
330
14A
100
AcDbEntity
  8
\U+5716\U+5C64 1
  6
AI-Linetype-2
370
    25
  0
ENDBLK
  5
149
330
146
100
AcDbEntity
  8
0
100
AcDbBlockEnd
  0
BLOCK
  5
151
330
14F
100
AcDbEntity
  8
0
100
AcDbBlockBegin
  2
block 43
 70
     0
 71
     0
 10
0.0
 20
0.0
 30
0.0
  3
block 43
  1

  0
POLYLINE
  5
153
330
14F
100
AcDbEntity
  8
\U+5716\U+5C64 1
  6
AI-Linetype-3
 62
     4
370
    25
100
AcDb2dPolyline
 66
     1
 10
0.0
 20
0.0
 30
0.0
  0
VERTEX
  5
154
330
153
100
AcDbEntity
  8
\U+5716\U+5C64 1
  6
AI-Linetype-3
 62
     4
370
    25
100
AcDbVertex
100
AcDb2dVertex
 10
65.26065908395616
 20
230.5307835326612
 30
0.0
  0
VERTEX
  5
155
330
153
100
AcDbEntity
  8
\U+5716\U+5C64 1
  6
AI-Linetype-3
 62
     4
370
    25
100
AcDbVertex
100
AcDb2dVertex
 10
72.02476402193814
 20
230.5307835326612
 30
0.0
  0
SEQEND
  5
156
330
153
100
AcDbEntity
  8
\U+5716\U+5C64 1
  6
AI-Linetype-3
370
    25
  0
ENDBLK
  5
152
330
14F
100
AcDbEntity
  8
0
100
AcDbBlockEnd
  0
BLOCK
  5
15A
330
158
100
AcDbEntity
  8
0
100
AcDbBlockBegin
  2
block 44
 70
     0
 71
     0
 10
0.0
 20
0.0
 30
0.0
  3
block 44
  1

  0
POLYLINE
  5
15C
330
158
100
AcDbEntity
  8
\U+5716\U+5C64 1
 62
     6
370
    25
100
AcDb2dPolyline
 66
     1
 10
0.0
 20
0.0
 30
0.0
  0
VERTEX
  5
15D
330
15C
100
AcDbEntity
  8
\U+5716\U+5C64 1
 62
     6
370
    25
100
AcDbVertex
100
AcDb2dVertex
 10
63.65334872497914
 20
242.3826088396009
 30
0.0
  0
VERTEX
  5
15E
330
15C
100
AcDbEntity
  8
\U+5716\U+5C64 1
 62
     6
370
    25
100
AcDbVertex
100
AcDb2dVertex
 10
65.72643630083259
 20
242.1647064064099
 30
0.0
  0
SEQEND
  5
15F
330
15C
100
AcDbEntity
  8
\U+5716\U+5C64 1
370
    25
  0
ENDBLK
  5
15B
330
158
100
AcDbEntity
  8
0
100
AcDbBlockEnd
  0
BLOCK
  5
162
330
160
100
AcDbEntity
  8
0
100
AcDbBlockBegin
  2
block 45
 70
     0
 71
     0
 10
0.0
 20
0.0
 30
0.0
  3
block 45
  1

  0
POLYLINE
  5
164
330
160
100
AcDbEntity
  8
\U+5716\U+5C64 1
 62
     6
370
    25
100
AcDb2dPolyline
 66
     1
 10
0.0
 20
0.0
 30
0.0
  0
VERTEX
  5
165
330
164
100
AcDbEntity
  8
\U+5716\U+5C64 1
 62
     6
370
    25
100
AcDbVertex
100
AcDb2dVertex
 10
62.08496797066708
 20
242.3826088396009
 30
0.0
  0
VERTEX
  5
166
330
164
100
AcDbEntity
  8
\U+5716\U+5C64 1
 62
     6
370
    25
100
AcDbVertex
100
AcDb2dVertex
 10
65.74934620092303
 20
242.3826088396009
 30
0.0
  0
SEQEND
  5
167
330
164
100
AcDbEntity
  8
\U+5716\U+5C64 1
370
    25
  0
ENDBLK
  5
163
330
160
100
AcDbEntity
  8
0
100
AcDbBlockEnd
  0
BLOCK
  5
16A
330
168
100
AcDbEntity
  8
0
100
AcDbBlockBegin
  2
block 46
 70
     0
 71
     0
 10
0.0
 20
0.0
 30
0.0
  3
block 46
  1

  0
POLYLINE
  5
16C
330
168
100
AcDbEntity
  8
\U+5716\U+5C64 1
  6
AI-Linetype-4
 62
     4
370
    25
100
AcDb2dPolyline
 66
     1
 10
0.0
 20
0.0
 30
0.0
  0
VERTEX
  5
16D
330
16C
100
AcDbEntity
  8
\U+5716\U+5C64 1
  6
AI-Linetype-4
 62
     4
370
    25
100
AcDbVertex
100
AcDb2dVertex
 10
62.94899848836387
 20
239.1583418479246
 30
0.0
  0
VERTEX
  5
16E
330
16C
100
AcDbEntity
  8
\U+5716\U+5C64 1
  6
AI-Linetype-4
 62
     4
370
    25
100
AcDbVertex
100
AcDb2dVertex
 10
65.26065908395616
 20
230.5307835326612
 30
0.0
  0
SEQEND
  5
16F
330
16C
100
AcDbEntity
  8
\U+5716\U+5C64 1
  6
AI-Linetype-4
370
    25
  0
ENDBLK
  5
16B
330
168
100
AcDbEntity
  8
0
100
AcDbBlockEnd
  0
BLOCK
  5
173
330
171
100
AcDbEntity
  8
0
100
AcDbBlockBegin
  2
block 47
 70
     0
 71
     0
 10
0.0
 20
0.0
 30
0.0
  3
block 47
  1

  0
POLYLINE
  5
175
330
171
100
AcDbEntity
  8
\U+5716\U+5C64 1
 62
     6
370
    25
100
AcDb2dPolyline
 66
     1
 10
0.0
 20
0.0
 30
0.0
  0
VERTEX
  5
176
330
175
100
AcDbEntity
  8
\U+5716\U+5C64 1
 62
     6
370
    25
100
AcDbVertex
100
AcDb2dVertex
 10
65.84959854567971
 20
243.3355228794532
 30
0.0
  0
VERTEX
  5
177
330
175
100
AcDbEntity
  8
\U+5716\U+5C64 1
 62
     6
370
    25
100
AcDbVertex
100
AcDb2dVertex
 10
65.72643630083259
 20
242.1647064064099
 30
0.0
  0
SEQEND
  5
178
330
175
100
AcDbEntity
  8
\U+5716\U+5C64 1
370
    25
  0
ENDBLK
  5
174
330
171
100
AcDbEntity
  8
0
100
AcDbBlockEnd
  0
BLOCK
  5
17B
330
179
100
AcDbEntity
  8
0
100
AcDbBlockBegin
  2
block 48
 70
     0
 71
     0
 10
0.0
 20
0.0
 30
0.0
  3
block 48
  1

  0
POLYLINE
  5
17D
330
179
100
AcDbEntity
  8
\U+5716\U+5C64 1
 62
     6
370
    25
100
AcDb2dPolyline
 66
     1
 10
0.0
 20
0.0
 30
0.0
  0
VERTEX
  5
17E
330
17D
100
AcDbEntity
  8
\U+5716\U+5C64 1
 62
     6
370
    25
100
AcDbVertex
100
AcDb2dVertex
 10
62.08496797066708
 20
242.3826088396009
 30
0.0
  0
VERTEX
  5
17F
330
17D
100
AcDbEntity
  8
\U+5716\U+5C64 1
 62
     6
370
    25
100
AcDbVertex
100
AcDb2dVertex
 10
62.18797639363013
 20
241.9984804395882
 30
0.0
  0
SEQEND
  5
180
330
17D
100
AcDbEntity
  8
\U+5716\U+5C64 1
370
    25
  0
ENDBLK
  5
17C
330
179
100
AcDbEntity
  8
0
100
AcDbBlockEnd
  0
BLOCK
  5
183
330
181
100
AcDbEntity
  8
0
100
AcDbBlockBegin
  2
block 49
 70
     0
 71
     0
 10
0.0
 20
0.0
 30
0.0
  3
block 49
  1

  0
POLYLINE
  5
185
330
181
100
AcDbEntity
  8
\U+5716\U+5C64 1
 62
     6
370
    25
100
AcDb2dPolyline
 66
     1
 10
0.0
 20
0.0
 30
0.0
  0
VERTEX
  5
186
330
185
100
AcDbEntity
  8
\U+5716\U+5C64 1
 62
     6
370
    25
100
AcDbVertex
100
AcDb2dVertex
 10
63.65334872497914
 20
242.3826088396009
 30
0.0
  0
VERTEX
  5
187
330
185
100
AcDbEntity
  8
\U+5716\U+5C64 1
 62
     6
370
    25
100
AcDbVertex
100
AcDb2dVertex
 10
63.61390235565047
 20
242.1969180704468
 30
0.0
  0
SEQEND
  5
188
330
185
100
AcDbEntity
  8
\U+5716\U+5C64 1
370
    25
  0
ENDBLK
  5
184
330
181
100
AcDbEntity
  8
0
100
AcDbBlockEnd
  0
BLOCK
  5
18B
330
189
100
AcDbEntity
  8
0
100
AcDbBlockBegin
  2
block 50
 70
     0
 71
     0
 10
0.0
 20
0.0
 30
0.0
  3
block 50
  1

  0
POLYLINE
  5
18D
330
189
100
AcDbEntity
  8
\U+5716\U+5C64 1
 62
     6
370
    25
100
AcDb2dPolyline
 66
     1
 10
0.0
 20
0.0
 30
0.0
  0
VERTEX
  5
18E
330
18D
100
AcDbEntity
  8
\U+5716\U+5C64 1
 62
     6
370
    25
100
AcDbVertex
100
AcDb2dVertex
 10
62.74005330934349
 20
242.3826088396009
 30
0.0
  0
VERTEX
  5
18F
330
18D
100
AcDbEntity
  8
\U+5716\U+5C64 1
 62
     6
370
    25
100
AcDbVertex
100
AcDb2dVertex
 10
63.61390235565047
 20
242.1969180704468
 30
0.0
  0
SEQEND
  5
190
330
18D
100
AcDbEntity
  8
\U+5716\U+5C64 1
370
    25
  0
ENDBLK
  5
18C
330
189
100
AcDbEntity
  8
0
100
AcDbBlockEnd
  0
BLOCK
  5
193
330
191
100
AcDbEntity
  8
0
100
AcDbBlockBegin
  2
block 51
 70
     0
 71
     0
 10
0.0
 20
0.0
 30
0.0
  3
block 51
  1

  0
POLYLINE
  5
195
330
191
100
AcDbEntity
  8
\U+5716\U+5C64 1
 62
     6
370
    25
100
AcDb2dPolyline
 66
     1
 10
0.0
 20
0.0
 30
0.0
  0
VERTEX
  5
196
330
195
100
AcDbEntity
  8
\U+5716\U+5C64 1
 62
     6
370
    25
100
AcDbVertex
100
AcDb2dVertex
 10
75.34790531926798
 20
240.9532377798226
 30
0.0
  0
VERTEX
  5
197
330
195
100
AcDbEntity
  8
\U+5716\U+5C64 1
 62
     6
370
    25
100
AcDbVertex
100
AcDb2dVertex
 10
93.21487131160889
 20
240.9532377798226
 30
0.0
  0
SEQEND
  5
198
330
195
100
AcDbEntity
  8
\U+5716\U+5C64 1
370
    25
  0
ENDBLK
  5
194
330
191
100
AcDbEntity
  8
0
100
AcDbBlockEnd
  0
BLOCK
  5
19B
330
199
100
AcDbEntity
  8
0
100
AcDbBlockBegin
  2
block 52
 70
     0
 71
     0
 10
0.0
 20
0.0
 30
0.0
  3
block 52
  1

  0
SPLINE
  5
19D
330
199
100
AcDbEntity
  8
\U+5716\U+5C64 1
 62
     6
370
    25
100
AcDbSpline
210
0.0
220
0.0
230
1.0
 70
     8
 71
     3
 72
     8
 73
     4
 74
     0
 42
0.0000000001
 43
0.0000000001
 40
0.0
 40
0.0
 40
0.0
 40
0.0
 40
1.0
 40
1.0
 40
1.0
 40
1.0
 10
77.73019041889849
 20
236.4864962817374
 30
0.0
 10
77.73983669262078
 20
238.0679684075297
 30
0.0
 10
76.66668874101572
 20
240.0804222628431
 30
0.0
 10
75.34790531926798
 20
240.9532377798226
 30
0.0
  0
ENDBLK
  5
19C
330
199
100
AcDbEntity
  8
0
100
AcDbBlockEnd
  0
BLOCK
  5
1A0
330
19E
100
AcDbEntity
  8
0
100
AcDbBlockBegin
  2
block 53
 70
     0
 71
     0
 10
0.0
 20
0.0
 30
0.0
  3
block 53
  1

  0
POLYLINE
  5
1A2
330
19E
100
AcDbEntity
  8
\U+5716\U+5C64 1
  6
AI-Linetype-5
 62
     4
370
    25
100
AcDb2dPolyline
 66
     1
 10
0.0
 20
0.0
 30
0.0
  0
VERTEX
  5
1A3
330
1A2
100
AcDbEntity
  8
\U+5716\U+5C64 1
  6
AI-Linetype-5
 62
     4
370
    25
100
AcDbVertex
100
AcDb2dVertex
 10
110.4498341202517
 20
246.5243053642225
 30
0.0
  0
VERTEX
  5
1A4
330
1A2
100
AcDbEntity
  8
\U+5716\U+5C64 1
  6
AI-Linetype-5
 62
     4
370
    25
100
AcDbVertex
100
AcDb2dVertex
 10
92.22268315731593
 20
226.2809109384396
 30
0.0
  0
SEQEND
  5
1A5
330
1A2
100
AcDbEntity
  8
\U+5716\U+5C64 1
  6
AI-Linetype-5
370
    25
  0
ENDBLK
  5
1A1
330
19E
100
AcDbEntity
  8
0
100
AcDbBlockEnd
  0
BLOCK
  5
1A9
330
1A7
100
AcDbEntity
  8
0
100
AcDbBlockBegin
  2
block 54
 70
     0
 71
     0
 10
0.0
 20
0.0
 30
0.0
  3
block 54
  1

  0
POLYLINE
  5
1AB
330
1A7
100
AcDbEntity
  8
\U+5716\U+5C64 1
  6
AI-Linetype-6
 62
     4
370
    25
100
AcDb2dPolyline
 66
     1
 10
0.0
 20
0.0
 30
0.0
  0
VERTEX
  5
1AC
330
1AB
100
AcDbEntity
  8
\U+5716\U+5C64 1
  6
AI-Linetype-6
 62
     4
370
    25
100
AcDbVertex
100
AcDb2dVertex
 10
105.613778142513
 20
239.1583418479246
 30
0.0
  0
VERTEX
  5
1AD
330
1AB
100
AcDbEntity
  8
\U+5716\U+5C64 1
  6
AI-Linetype-6
 62
     4
370
    25
100
AcDbVertex
100
AcDb2dVertex
 10
103.3021175469207
 20
230.5307835326612
 30
0.0
  0
SEQEND
  5
1AE
330
1AB
100
AcDbEntity
  8
\U+5716\U+5C64 1
  6
AI-Linetype-6
370
    25
  0
ENDBLK
  5
1AA
330
1A7
100
AcDbEntity
  8
0
100
AcDbBlockEnd
  0
BLOCK
  5
1B2
330
1B0
100
AcDbEntity
  8
0
100
AcDbBlockBegin
  2
block 55
 70
     0
 71
     0
 10
0.0
 20
0.0
 30
0.0
  3
block 55
  1

  0
POLYLINE
  5
1B4
330
1B0
100
AcDbEntity
  8
\U+5716\U+5C64 1
 62
     6
370
    25
100
AcDb2dPolyline
 66
     1
 10
0.0
 20
0.0
 30
0.0
  0
VERTEX
  5
1B5
330
1B4
100
AcDbEntity
  8
\U+5716\U+5C64 1
 62
     6
370
    25
100
AcDbVertex
100
AcDb2dVertex
 10
90.83258621197838
 20
236.4864962817374
 30
0.0
  0
VERTEX
  5
1B6
330
1B4
100
AcDbEntity
  8
\U+5716\U+5C64 1
 62
     6
370
    25
100
AcDbVertex
100
AcDb2dVertex
 10
90.83258621197838
 20
230.5307835326612
 30
0.0
  0
SEQEND
  5
1B7
330
1B4
100
AcDbEntity
  8
\U+5716\U+5C64 1
370
    25
  0
ENDBLK
  5
1B3
330
1B0
100
AcDbEntity
  8
0
100
AcDbBlockEnd
  0
BLOCK
  5
1BA
330
1B8
100
AcDbEntity
  8
0
100
AcDbBlockBegin
  2
block 56
 70
     0
 71
     0
 10
0.0
 20
0.0
 30
0.0
  3
block 56
  1

  0
POLYLINE
  5
1BC
330
1B8
100
AcDbEntity
  8
\U+5716\U+5C64 1
  6
AI-Linetype-7
 62
     4
370
    25
100
AcDb2dPolyline
 66
     1
 10
0.0
 20
0.0
 30
0.0
  0
VERTEX
  5
1BD
330
1BC
100
AcDbEntity
  8
\U+5716\U+5C64 1
  6
AI-Linetype-7
 62
     4
370
    25
100
AcDbVertex
100
AcDb2dVertex
 10
103.3021175469207
 20
230.5307835326612
 30
0.0
  0
VERTEX
  5
1BE
330
1BC
100
AcDbEntity
  8
\U+5716\U+5C64 1
  6
AI-Linetype-7
 62
     4
370
    25
100
AcDbVertex
100
AcDb2dVertex
 10
96.53801260893874
 20
230.5307835326612
 30
0.0
  0
SEQEND
  5
1BF
330
1BC
100
AcDbEntity
  8
\U+5716\U+5C64 1
  6
AI-Linetype-7
370
    25
  0
ENDBLK
  5
1BB
330
1B8
100
AcDbEntity
  8
0
100
AcDbBlockEnd
  0
BLOCK
  5
1C3
330
1C1
100
AcDbEntity
  8
0
100
AcDbBlockBegin
  2
block 57
 70
     0
 71
     0
 10
0.0
 20
0.0
 30
0.0
  3
block 57
  1

  0
SPLINE
  5
1C5
330
1C1
100
AcDbEntity
  8
\U+5716\U+5C64 1
 62
     6
370
    25
100
AcDbSpline
210
0.0
220
0.0
230
1.0
 70
     8
 71
     3
 72
     8
 73
     4
 74
     0
 42
0.0000000001
 43
0.0000000001
 40
0.0
 40
0.0
 40
0.0
 40
0.0
 40
1.0
 40
1.0
 40
1.0
 40
1.0
 10
93.21487131160889
 20
240.9532377798226
 30
0.0
 10
91.89608788986116
 20
240.0804222628431
 30
0.0
 10
90.8227676833682
 20
238.0679684075297
 30
0.0
 10
90.83258621197838
 20
236.4864962817374
 30
0.0
  0
ENDBLK
  5
1C4
330
1C1
100
AcDbEntity
  8
0
100
AcDbBlockEnd
  0
BLOCK
  5
1C8
330
1C6
100
AcDbEntity
  8
0
100
AcDbBlockBegin
  2
block 58
 70
     0
 71
     0
 10
0.0
 20
0.0
 30
0.0
  3
block 58
  1

  0
POLYLINE
  5
1CA
330
1C6
100
AcDbEntity
  8
\U+5716\U+5C64 1
 62
     6
370
    25
100
AcDb2dPolyline
 66
     1
 10
0.0
 20
0.0
 30
0.0
  0
VERTEX
  5
1CB
330
1CA
100
AcDbEntity
  8
\U+5716\U+5C64 1
 62
     6
370
    25
100
AcDbVertex
100
AcDb2dVertex
 10
93.21487131160889
 20
243.3355228794532
 30
0.0
  0
VERTEX
  5
1CC
330
1CA
100
AcDbEntity
  8
\U+5716\U+5C64 1
 62
     6
370
    25
100
AcDbVertex
100
AcDb2dVertex
 10
93.21487131160889
 20
240.9532377798226
 30
0.0
  0
SEQEND
  5
1CD
330
1CA
100
AcDbEntity
  8
\U+5716\U+5C64 1
370
    25
  0
ENDBLK
  5
1C9
330
1C6
100
AcDbEntity
  8
0
100
AcDbBlockEnd
  0
BLOCK
  5
1D0
330
1CE
100
AcDbEntity
  8
0
100
AcDbBlockBegin
  2
block 59
 70
     0
 71
     0
 10
0.0
 20
0.0
 30
0.0
  3
block 59
  1

  0
POLYLINE
  5
1D2
330
1CE
100
AcDbEntity
  8
\U+5716\U+5C64 1
 62
     6
370
    25
100
AcDb2dPolyline
 66
     1
 10
0.0
 20
0.0
 30
0.0
  0
VERTEX
  5
1D3
330
1D2
100
AcDbEntity
  8
\U+5716\U+5C64 1
 62
     6
370
    25
100
AcDbVertex
100
AcDb2dVertex
 10
104.9094279058977
 20
242.3826088396009
 30
0.0
  0
VERTEX
  5
1D4
330
1D2
100
AcDbEntity
  8
\U+5716\U+5C64 1
 62
     6
370
    25
100
AcDbVertex
100
AcDb2dVertex
 10
102.8363403300443
 20
242.1647064064099
 30
0.0
  0
SEQEND
  5
1D5
330
1D2
100
AcDbEntity
  8
\U+5716\U+5C64 1
370
    25
  0
ENDBLK
  5
1D1
330
1CE
100
AcDbEntity
  8
0
100
AcDbBlockEnd
  0
BLOCK
  5
1D8
330
1D6
100
AcDbEntity
  8
0
100
AcDbBlockBegin
  2
block 60
 70
     0
 71
     0
 10
0.0
 20
0.0
 30
0.0
  3
block 60
  1

  0
POLYLINE
  5
1DA
330
1D6
100
AcDbEntity
  8
\U+5716\U+5C64 1
 62
     6
370
    25
100
AcDb2dPolyline
 66
     1
 10
0.0
 20
0.0
 30
0.0
  0
VERTEX
  5
1DB
330
1DA
100
AcDbEntity
  8
\U+5716\U+5C64 1
 62
     6
370
    25
100
AcDbVertex
100
AcDb2dVertex
 10
104.9094279058977
 20
242.3826088396009
 30
0.0
  0
VERTEX
  5
1DC
330
1DA
100
AcDbEntity
  8
\U+5716\U+5C64 1
 62
     6
370
    25
100
AcDbVertex
100
AcDb2dVertex
 10
104.9488742752264
 20
242.1969180704468
 30
0.0
  0
SEQEND
  5
1DD
330
1DA
100
AcDbEntity
  8
\U+5716\U+5C64 1
370
    25
  0
ENDBLK
  5
1D9
330
1D6
100
AcDbEntity
  8
0
100
AcDbBlockEnd
  0
BLOCK
  5
1E0
330
1DE
100
AcDbEntity
  8
0
100
AcDbBlockBegin
  2
block 61
 70
     0
 71
     0
 10
0.0
 20
0.0
 30
0.0
  3
block 61
  1

  0
POLYLINE
  5
1E2
330
1DE
100
AcDbEntity
  8
\U+5716\U+5C64 1
 62
     6
370
    25
100
AcDb2dPolyline
 66
     1
 10
0.0
 20
0.0
 30
0.0
  0
VERTEX
  5
1E3
330
1E2
100
AcDbEntity
  8
\U+5716\U+5C64 1
 62
     6
370
    25
100
AcDbVertex
100
AcDb2dVertex
 10
106.4778086602098
 20
242.3826088396009
 30
0.0
  0
VERTEX
  5
1E4
330
1E2
100
AcDbEntity
  8
\U+5716\U+5C64 1
 62
     6
370
    25
100
AcDbVertex
100
AcDb2dVertex
 10
102.8134304299539
 20
242.3826088396009
 30
0.0
  0
SEQEND
  5
1E5
330
1E2
100
AcDbEntity
  8
\U+5716\U+5C64 1
370
    25
  0
ENDBLK
  5
1E1
330
1DE
100
AcDbEntity
  8
0
100
AcDbBlockEnd
  0
BLOCK
  5
1E8
330
1E6
100
AcDbEntity
  8
0
100
AcDbBlockBegin
  2
block 62
 70
     0
 71
     0
 10
0.0
 20
0.0
 30
0.0
  3
block 62
  1

  0
POLYLINE
  5
1EA
330
1E6
100
AcDbEntity
  8
\U+5716\U+5C64 1
 62
     6
370
    25
100
AcDb2dPolyline
 66
     1
 10
0.0
 20
0.0
 30
0.0
  0
VERTEX
  5
1EB
330
1EA
100
AcDbEntity
  8
\U+5716\U+5C64 1
 62
     6
370
    25
100
AcDbVertex
100
AcDb2dVertex
 10
105.8227233215334
 20
242.3826088396009
 30
0.0
  0
VERTEX
  5
1EC
330
1EA
100
AcDbEntity
  8
\U+5716\U+5C64 1
 62
     6
370
    25
100
AcDbVertex
100
AcDb2dVertex
 10
104.9488742752264
 20
242.1969180704468
 30
0.0
  0
SEQEND
  5
1ED
330
1EA
100
AcDbEntity
  8
\U+5716\U+5C64 1
370
    25
  0
ENDBLK
  5
1E9
330
1E6
100
AcDbEntity
  8
0
100
AcDbBlockEnd
  0
BLOCK
  5
1F0
330
1EE
100
AcDbEntity
  8
0
100
AcDbBlockBegin
  2
block 63
 70
     0
 71
     0
 10
0.0
 20
0.0
 30
0.0
  3
block 63
  1

  0
POLYLINE
  5
1F2
330
1EE
100
AcDbEntity
  8
\U+5716\U+5C64 1
 62
     6
370
    25
100
AcDb2dPolyline
 66
     1
 10
0.0
 20
0.0
 30
0.0
  0
VERTEX
  5
1F3
330
1F2
100
AcDbEntity
  8
\U+5716\U+5C64 1
 62
     6
370
    25
100
AcDbVertex
100
AcDb2dVertex
 10
102.7131780851972
 20
243.3355228794532
 30
0.0
  0
VERTEX
  5
1F4
330
1F2
100
AcDbEntity
  8
\U+5716\U+5C64 1
 62
     6
370
    25
100
AcDbVertex
100
AcDb2dVertex
 10
102.8363403300443
 20
242.1647064064099
 30
0.0
  0
SEQEND
  5
1F5
330
1F2
100
AcDbEntity
  8
\U+5716\U+5C64 1
370
    25
  0
ENDBLK
  5
1F1
330
1EE
100
AcDbEntity
  8
0
100
AcDbBlockEnd
  0
BLOCK
  5
1F8
330
1F6
100
AcDbEntity
  8
0
100
AcDbBlockBegin
  2
block 64
 70
     0
 71
     0
 10
0.0
 20
0.0
 30
0.0
  3
block 64
  1

  0
POLYLINE
  5
1FA
330
1F6
100
AcDbEntity
  8
\U+5716\U+5C64 1
 62
     6
370
    25
100
AcDb2dPolyline
 66
     1
 10
0.0
 20
0.0
 30
0.0
  0
VERTEX
  5
1FB
330
1FA
100
AcDbEntity
  8
\U+5716\U+5C64 1
 62
     6
370
    25
100
AcDbVertex
100
AcDb2dVertex
 10
106.4778086602098
 20
242.3826088396009
 30
0.0
  0
VERTEX
  5
1FC
330
1FA
100
AcDbEntity
  8
\U+5716\U+5C64 1
 62
     6
370
    25
100
AcDbVertex
100
AcDb2dVertex
 10
106.3748002372467
 20
241.9984804395882
 30
0.0
  0
SEQEND
  5
1FD
330
1FA
100
AcDbEntity
  8
\U+5716\U+5C64 1
370
    25
  0
ENDBLK
  5
1F9
330
1F6
100
AcDbEntity
  8
0
100
AcDbBlockEnd
  0
BLOCK
  5
200
330
1FE
100
AcDbEntity
  8
0
100
AcDbBlockBegin
  2
block 65
 70
     0
 71
     0
 10
0.0
 20
0.0
 30
0.0
  3
block 65
  1

  0
POLYLINE
  5
202
330
1FE
100
AcDbEntity
  8
\U+5716\U+5C64 1
 62
     6
370
    25
100
AcDb2dPolyline
 66
     1
 10
0.0
 20
0.0
 30
0.0
  0
VERTEX
  5
203
330
202
100
AcDbEntity
  8
\U+5716\U+5C64 1
 62
     6
370
    25
100
AcDbVertex
100
AcDb2dVertex
 10
75.34790531926798
 20
243.3355228794532
 30
0.0
  0
VERTEX
  5
204
330
202
100
AcDbEntity
  8
\U+5716\U+5C64 1
 62
     6
370
    25
100
AcDbVertex
100
AcDb2dVertex
 10
75.34790531926798
 20
240.9532377798226
 30
0.0
  0
SEQEND
  5
205
330
202
100
AcDbEntity
  8
\U+5716\U+5C64 1
370
    25
  0
ENDBLK
  5
201
330
1FE
100
AcDbEntity
  8
0
100
AcDbBlockEnd
  0
BLOCK
  5
208
330
206
100
AcDbEntity
  8
0
100
AcDbBlockBegin
  2
block 66
 70
     0
 71
     0
 10
0.0
 20
0.0
 30
0.0
  3
block 66
  1

  0
POLYLINE
  5
20A
330
206
100
AcDbEntity
  8
\U+5716\U+5C64 1
370
     0
100
AcDb2dPolyline
 66
     1
 10
0.0
 20
0.0
 30
0.0
  0
VERTEX
  5
20B
330
20A
100
AcDbEntity
  8
\U+5716\U+5C64 1
370
     0
100
AcDbVertex
100
AcDb2dVertex
 10
93.2143545469452
 20
240.9520319956074
 30
0.0
  0
VERTEX
  5
20C
330
20A
100
AcDbEntity
  8
\U+5716\U+5C64 1
370
     0
100
AcDbVertex
100
AcDb2dVertex
 10
90.83275846686628
 20
236.4852904975221
 30
0.0
  0
VERTEX
  5
20D
330
20A
100
AcDbEntity
  8
\U+5716\U+5C64 1
370
     0
100
AcDbVertex
100
AcDb2dVertex
 10
90.83275846686628
 20
230.5297500033338
 30
0.0
  0
VERTEX
  5
20E
330
20A
100
AcDbEntity
  8
\U+5716\U+5C64 1
370
     0
100
AcDbVertex
100
AcDb2dVertex
 10
96.04967000174767
 20
230.5297500033338
 30
0.0
  0
VERTEX
  5
20F
330
20A
100
AcDbEntity
  8
\U+5716\U+5C64 1
370
     0
100
AcDbVertex
100
AcDb2dVertex
 10
106.3746279823588
 20
241.9989972042519
 30
0.0
  0
VERTEX
  5
210
330
20A
100
AcDbEntity
  8
\U+5716\U+5C64 1
370
     0
100
AcDbVertex
100
AcDb2dVertex
 10
106.4779809150977
 20
242.3827810944888
 30
0.0
  0
VERTEX
  5
211
330
20A
100
AcDbEntity
  8
\U+5716\U+5C64 1
370
     0
100
AcDbVertex
100
AcDb2dVertex
 10
105.8222065568697
 20
242.3827810944888
 30
0.0
  0
VERTEX
  5
212
330
20A
100
AcDbEntity
  8
\U+5716\U+5C64 1
370
     0
100
AcDbVertex
100
AcDb2dVertex
 10
104.9483575105627
 20
242.1967458155589
 30
0.0
  0
VERTEX
  5
213
330
20A
100
AcDbEntity
  8
\U+5716\U+5C64 1
370
     0
100
AcDbVertex
100
AcDb2dVertex
 10
104.9090833961219
 20
242.3827810944888
 30
0.0
  0
VERTEX
  5
214
330
20A
100
AcDbEntity
  8
\U+5716\U+5C64 1
370
     0
100
AcDbVertex
100
AcDb2dVertex
 10
102.8356513104927
 20
242.1647064064099
 30
0.0
  0
VERTEX
  5
215
330
20A
100
AcDbEntity
  8
\U+5716\U+5C64 1
370
     0
100
AcDbVertex
100
AcDb2dVertex
 10
102.713522594973
 20
243.3367286636685
 30
0.0
  0
VERTEX
  5
216
330
20A
100
AcDbEntity
  8
\U+5716\U+5C64 1
370
     0
100
AcDbVertex
100
AcDb2dVertex
 10
93.2143545469452
 20
243.3367286636685
 30
0.0
  0
VERTEX
  5
217
330
20A
100
AcDbEntity
  8
\U+5716\U+5C64 1
370
     0
100
AcDbVertex
100
AcDb2dVertex
 10
93.2143545469452
 20
240.9520319956074
 30
0.0
  0
SEQEND
  5
218
330
20A
100
AcDbEntity
  8
\U+5716\U+5C64 1
370
     0
  0
POLYLINE
  5
219
330
206
100
AcDbEntity
  8
\U+5716\U+5C64 1
370
     0
100
AcDb2dPolyline
 66
     1
 10
0.0
 20
0.0
 30
0.0
  0
VERTEX
  5
21A
330
219
100
AcDbEntity
  8
\U+5716\U+5C64 1
370
     0
100
AcDbVertex
100
AcDb2dVertex
 10
75.3473885546043
 20
240.9520319956074
 30
0.0
  0
VERTEX
  5
21B
330
219
100
AcDbEntity
  8
\U+5716\U+5C64 1
370
     0
100
AcDbVertex
100
AcDb2dVertex
 10
75.3473885546043
 20
243.3367286636685
 30
0.0
  0
VERTEX
  5
21C
330
219
100
AcDbEntity
  8
\U+5716\U+5C64 1
370
     0
100
AcDbVertex
100
AcDb2dVertex
 10
65.84959854567971
 20
243.3367286636685
 30
0.0
  0
VERTEX
  5
21D
330
219
100
AcDbEntity
  8
\U+5716\U+5C64 1
370
     0
100
AcDbVertex
100
AcDb2dVertex
 10
65.72609179105679
 20
242.1647064064099
 30
0.0
  0
VERTEX
  5
21E
330
219
100
AcDbEntity
  8
\U+5716\U+5C64 1
370
     0
100
AcDbVertex
100
AcDb2dVertex
 10
63.65403774453073
 20
242.3827810944888
 30
0.0
  0
VERTEX
  5
21F
330
219
100
AcDbEntity
  8
\U+5716\U+5C64 1
370
     0
100
AcDbVertex
100
AcDb2dVertex
 10
63.61338559098678
 20
242.1967458155589
 30
0.0
  0
VERTEX
  5
220
330
219
100
AcDbEntity
  8
\U+5716\U+5C64 1
370
     0
100
AcDbVertex
100
AcDb2dVertex
 10
62.7395365446798
 20
242.3827810944888
 30
0.0
  0
VERTEX
  5
221
330
219
100
AcDbEntity
  8
\U+5716\U+5C64 1
370
     0
100
AcDbVertex
100
AcDb2dVertex
 10
62.08514022555497
 20
242.3827810944888
 30
0.0
  0
VERTEX
  5
222
330
219
100
AcDbEntity
  8
\U+5716\U+5C64 1
370
     0
100
AcDbVertex
100
AcDb2dVertex
 10
62.18849315829382
 20
241.9989972042519
 30
0.0
  0
VERTEX
  5
223
330
219
100
AcDbEntity
  8
\U+5716\U+5C64 1
370
     0
100
AcDbVertex
100
AcDb2dVertex
 10
72.51345113890501
 20
230.5297500033338
 30
0.0
  0
VERTEX
  5
224
330
219
100
AcDbEntity
  8
\U+5716\U+5C64 1
370
     0
100
AcDbVertex
100
AcDb2dVertex
 10
77.73053492867429
 20
230.5297500033338
 30
0.0
  0
VERTEX
  5
225
330
219
100
AcDbEntity
  8
\U+5716\U+5C64 1
370
     0
100
AcDbVertex
100
AcDb2dVertex
 10
77.73053492867429
 20
236.4852904975221
 30
0.0
  0
VERTEX
  5
226
330
219
100
AcDbEntity
  8
\U+5716\U+5C64 1
370
     0
100
AcDbVertex
100
AcDb2dVertex
 10
75.3473885546043
 20
240.9520319956074
 30
0.0
  0
SEQEND
  5
227
330
219
100
AcDbEntity
  8
\U+5716\U+5C64 1
370
     0
  0
POLYLINE
  5
228
330
206
100
AcDbEntity
  8
\U+5716\U+5C64 1
370
     0
100
AcDb2dPolyline
 66
     1
 10
0.0
 20
0.0
 30
0.0
  0
VERTEX
  5
229
330
228
100
AcDbEntity
  8
\U+5716\U+5C64 1
370
     0
100
AcDbVertex
100
AcDb2dVertex
 10
62.77295399293203
 20
241.3504575513156
 30
0.0
  0
VERTEX
  5
22A
330
228
100
AcDbEntity
  8
\U+5716\U+5C64 1
370
     0
100
AcDbVertex
100
AcDb2dVertex
 10
63.79218616462499
 20
242.3683116839054
 30
0.0
  0
SEQEND
  5
22B
330
228
100
AcDbEntity
  8
\U+5716\U+5C64 1
370
     0
  0
POLYLINE
  5
22C
330
206
100
AcDbEntity
  8
\U+5716\U+5C64 1
370
     0
100
AcDb2dPolyline
 66
     1
 10
0.0
 20
0.0
 30
0.0
  0
VERTEX
  5
22D
330
22C
100
AcDbEntity
  8
\U+5716\U+5C64 1
370
     0
100
AcDbVertex
100
AcDb2dVertex
 10
64.67344217111159
 20
239.2393016452367
 30
0.0
  0
VERTEX
  5
22E
330
22C
100
AcDbEntity
  8
\U+5716\U+5C64 1
370
     0
100
AcDbVertex
100
AcDb2dVertex
 10
68.77086918954333
 20
243.3367286636685
 30
0.0
  0
SEQEND
  5
22F
330
22C
100
AcDbEntity
  8
\U+5716\U+5C64 1
370
     0
  0
POLYLINE
  5
230
330
206
100
AcDbEntity
  8
\U+5716\U+5C64 1
370
     0
100
AcDb2dPolyline
 66
     1
 10
0.0
 20
0.0
 30
0.0
  0
VERTEX
  5
231
330
230
100
AcDbEntity
  8
\U+5716\U+5C64 1
370
     0
100
AcDbVertex
100
AcDb2dVertex
 10
66.57375809440326
 20
237.1279734842699
 30
0.0
  0
VERTEX
  5
232
330
230
100
AcDbEntity
  8
\U+5716\U+5C64 1
370
     0
100
AcDbVertex
100
AcDb2dVertex
 10
72.78096297981074
 20
243.3367286636685
 30
0.0
  0
SEQEND
  5
233
330
230
100
AcDbEntity
  8
\U+5716\U+5C64 1
370
     0
  0
POLYLINE
  5
234
330
206
100
AcDbEntity
  8
\U+5716\U+5C64 1
370
     0
100
AcDb2dPolyline
 66
     1
 10
0.0
 20
0.0
 30
0.0
  0
VERTEX
  5
235
330
234
100
AcDbEntity
  8
\U+5716\U+5C64 1
370
     0
100
AcDbVertex
100
AcDb2dVertex
 10
68.47424627258283
 20
235.016817578191
 30
0.0
  0
VERTEX
  5
236
330
234
100
AcDbEntity
  8
\U+5716\U+5C64 1
370
     0
100
AcDbVertex
100
AcDb2dVertex
 10
75.3473885546043
 20
241.8913378993156
 30
0.0
  0
SEQEND
  5
237
330
234
100
AcDbEntity
  8
\U+5716\U+5C64 1
370
     0
  0
POLYLINE
  5
238
330
206
100
AcDbEntity
  8
\U+5716\U+5C64 1
370
     0
100
AcDb2dPolyline
 66
     1
 10
0.0
 20
0.0
 30
0.0
  0
VERTEX
  5
239
330
238
100
AcDbEntity
  8
\U+5716\U+5C64 1
370
     0
100
AcDbVertex
100
AcDb2dVertex
 10
70.37456219587449
 20
232.9054894172241
 30
0.0
  0
VERTEX
  5
23A
330
238
100
AcDbEntity
  8
\U+5716\U+5C64 1
370
     0
100
AcDbVertex
100
AcDb2dVertex
 10
76.76797461509979
 20
239.3002798755526
 30
0.0
  0
SEQEND
  5
23B
330
238
100
AcDbEntity
  8
\U+5716\U+5C64 1
370
     0
  0
POLYLINE
  5
23C
330
206
100
AcDbEntity
  8
\U+5716\U+5C64 1
370
     0
100
AcDb2dPolyline
 66
     1
 10
0.0
 20
0.0
 30
0.0
  0
VERTEX
  5
23D
330
23C
100
AcDbEntity
  8
\U+5716\U+5C64 1
370
     0
100
AcDbVertex
100
AcDb2dVertex
 10
72.27505037405406
 20
230.7943335111452
 30
0.0
  0
VERTEX
  5
23E
330
23C
100
AcDbEntity
  8
\U+5716\U+5C64 1
370
     0
100
AcDbVertex
100
AcDb2dVertex
 10
77.73053492867429
 20
236.2498180657655
 30
0.0
  0
SEQEND
  5
23F
330
23C
100
AcDbEntity
  8
\U+5716\U+5C64 1
370
     0
  0
POLYLINE
  5
240
330
206
100
AcDbEntity
  8
\U+5716\U+5C64 1
370
     0
100
AcDb2dPolyline
 66
     1
 10
0.0
 20
0.0
 30
0.0
  0
VERTEX
  5
241
330
240
100
AcDbEntity
  8
\U+5716\U+5C64 1
370
     0
100
AcDbVertex
100
AcDb2dVertex
 10
76.02193869561319
 20
230.5297500033338
 30
0.0
  0
VERTEX
  5
242
330
240
100
AcDbEntity
  8
\U+5716\U+5C64 1
370
     0
100
AcDbVertex
100
AcDb2dVertex
 10
77.73053492867429
 20
232.2395520206101
 30
0.0
  0
SEQEND
  5
243
330
240
100
AcDbEntity
  8
\U+5716\U+5C64 1
370
     0
  0
POLYLINE
  5
244
330
206
100
AcDbEntity
  8
\U+5716\U+5C64 1
370
     0
100
AcDb2dPolyline
 66
     1
 10
0.0
 20
0.0
 30
0.0
  0
VERTEX
  5
245
330
244
100
AcDbEntity
  8
\U+5716\U+5C64 1
370
     0
100
AcDbVertex
100
AcDb2dVertex
 10
91.15263579369302
 20
237.6369866780087
 30
0.0
  0
VERTEX
  5
246
330
244
100
AcDbEntity
  8
\U+5716\U+5C64 1
370
     0
100
AcDbVertex
100
AcDb2dVertex
 10
96.84944944625848
 20
243.3367286636685
 30
0.0
  0
SEQEND
  5
247
330
244
100
AcDbEntity
  8
\U+5716\U+5C64 1
370
     0
  0
POLYLINE
  5
248
330
206
100
AcDbEntity
  8
\U+5716\U+5C64 1
370
     0
100
AcDb2dPolyline
 66
     1
 10
0.0
 20
0.0
 30
0.0
  0
VERTEX
  5
249
330
248
100
AcDbEntity
  8
\U+5716\U+5C64 1
370
     0
100
AcDbVertex
100
AcDb2dVertex
 10
90.83275846686628
 20
233.3068433060267
 30
0.0
  0
VERTEX
  5
24A
330
248
100
AcDbEntity
  8
\U+5716\U+5C64 1
370
     0
100
AcDbVertex
100
AcDb2dVertex
 10
100.861093530517
 20
243.3367286636685
 30
0.0
  0
SEQEND
  5
24B
330
248
100
AcDbEntity
  8
\U+5716\U+5C64 1
370
     0
  0
POLYLINE
  5
24C
330
206
100
AcDbEntity
  8
\U+5716\U+5C64 1
370
     0
100
AcDb2dPolyline
 66
     1
 10
0.0
 20
0.0
 30
0.0
  0
VERTEX
  5
24D
330
24C
100
AcDbEntity
  8
\U+5716\U+5C64 1
370
     0
100
AcDbVertex
100
AcDb2dVertex
 10
92.06713699354395
 20
230.5297500033338
 30
0.0
  0
VERTEX
  5
24E
330
24C
100
AcDbEntity
  8
\U+5716\U+5C64 1
370
     0
100
AcDbVertex
100
AcDb2dVertex
 10
103.8025179962647
 20
242.2665090451576
 30
0.0
  0
SEQEND
  5
24F
330
24C
100
AcDbEntity
  8
\U+5716\U+5C64 1
370
     0
  0
ENDBLK
  5
209
330
206
100
AcDbEntity
  8
0
100
AcDbBlockEnd
  0
BLOCK
  5
252
330
250
100
AcDbEntity
  8
0
100
AcDbBlockBegin
  2
block 67
 70
     0
 71
     0
 10
0.0
 20
0.0
 30
0.0
  3
block 67
  1

  0
POLYLINE
  5
254
330
250
100
AcDbEntity
  8
\U+5716\U+5C64 1
 62
     6
370
    25
100
AcDb2dPolyline
 66
     1
 10
0.0
 20
0.0
 30
0.0
  0
VERTEX
  5
255
330
254
100
AcDbEntity
  8
\U+5716\U+5C64 1
 62
     6
370
    25
100
AcDbVertex
100
AcDb2dVertex
 10
176.5595375466576
 20
243.3355228794532
 30
0.0
  0
VERTEX
  5
256
330
254
100
AcDbEntity
  8
\U+5716\U+5C64 1
 62
     6
370
    25
100
AcDbVertex
100
AcDb2dVertex
 10
202.11423918589
 20
243.3355228794532
 30
0.0
  0
SEQEND
  5
257
330
254
100
AcDbEntity
  8
\U+5716\U+5C64 1
370
    25
  0
ENDBLK
  5
253
330
250
100
AcDbEntity
  8
0
100
AcDbBlockEnd
  0
BLOCK
  5
25A
330
258
100
AcDbEntity
  8
0
100
AcDbBlockBegin
  2
block 68
 70
     0
 71
     0
 10
0.0
 20
0.0
 30
0.0
  3
block 68
  1

  0
POLYLINE
  5
25C
330
258
100
AcDbEntity
  8
\U+5716\U+5C64 1
 62
     6
370
    25
100
AcDb2dPolyline
 66
     1
 10
0.0
 20
0.0
 30
0.0
  0
VERTEX
  5
25D
330
25C
100
AcDbEntity
  8
\U+5716\U+5C64 1
 62
     6
370
    25
100
AcDbVertex
100
AcDb2dVertex
 10
175.9625021052028
 20
230.5605836282675
 30
0.0
  0
VERTEX
  5
25E
330
25C
100
AcDbEntity
  8
\U+5716\U+5C64 1
 62
     6
370
    25
100
AcDbVertex
100
AcDb2dVertex
 10
202.7109301175689
 20
230.5605836282675
 30
0.0
  0
SEQEND
  5
25F
330
25C
100
AcDbEntity
  8
\U+5716\U+5C64 1
370
    25
  0
ENDBLK
  5
25B
330
258
100
AcDbEntity
  8
0
100
AcDbBlockEnd
  0
BLOCK
  5
262
330
260
100
AcDbEntity
  8
0
100
AcDbBlockBegin
  2
block 69
 70
     0
 71
     0
 10
0.0
 20
0.0
 30
0.0
  3
block 69
  1

  0
POLYLINE
  5
264
330
260
100
AcDbEntity
  8
\U+5716\U+5C64 1
 62
     6
370
    25
100
AcDb2dPolyline
 66
     1
 10
0.0
 20
0.0
 30
0.0
  0
VERTEX
  5
265
330
264
100
AcDbEntity
  8
\U+5716\U+5C64 1
 62
     6
370
    25
100
AcDbVertex
100
AcDb2dVertex
 10
180.4032331152154
 20
240.9532377798226
 30
0.0
  0
VERTEX
  5
266
330
264
100
AcDbEntity
  8
\U+5716\U+5C64 1
 62
     6
370
    25
100
AcDbVertex
100
AcDb2dVertex
 10
198.2701991075563
 20
240.9532377798226
 30
0.0
  0
SEQEND
  5
267
330
264
100
AcDbEntity
  8
\U+5716\U+5C64 1
370
    25
  0
ENDBLK
  5
263
330
260
100
AcDbEntity
  8
0
100
AcDbBlockEnd
  0
BLOCK
  5
26A
330
268
100
AcDbEntity
  8
0
100
AcDbBlockBegin
  2
block 70
 70
     0
 71
     0
 10
0.0
 20
0.0
 30
0.0
  3
block 70
  1

  0
POLYLINE
  5
26C
330
268
100
AcDbEntity
  8
\U+5716\U+5C64 1
 62
     6
370
    25
100
AcDb2dPolyline
 66
     1
 10
0.0
 20
0.0
 30
0.0
  0
VERTEX
  5
26D
330
26C
100
AcDbEntity
  8
\U+5716\U+5C64 1
 62
     6
370
    25
100
AcDbVertex
100
AcDb2dVertex
 10
172.7950792265328
 20
242.3826088396009
 30
0.0
  0
VERTEX
  5
26E
330
26C
100
AcDbEntity
  8
\U+5716\U+5C64 1
 62
     6
370
    25
100
AcDbVertex
100
AcDb2dVertex
 10
175.9625021052028
 20
230.5605836282675
 30
0.0
  0
SEQEND
  5
26F
330
26C
100
AcDbEntity
  8
\U+5716\U+5C64 1
370
    25
  0
ENDBLK
  5
26B
330
268
100
AcDbEntity
  8
0
100
AcDbBlockEnd
  0
BLOCK
  5
272
330
270
100
AcDbEntity
  8
0
100
AcDbBlockBegin
  2
block 71
 70
     0
 71
     0
 10
0.0
 20
0.0
 30
0.0
  3
block 71
  1

  0
POLYLINE
  5
274
330
270
100
AcDbEntity
  8
\U+5716\U+5C64 1
 62
     6
370
    25
100
AcDb2dPolyline
 66
     1
 10
0.0
 20
0.0
 30
0.0
  0
VERTEX
  5
275
330
274
100
AcDbEntity
  8
\U+5716\U+5C64 1
 62
     6
370
    25
100
AcDbVertex
100
AcDb2dVertex
 10
182.7855182148459
 20
236.4864962817374
 30
0.0
  0
VERTEX
  5
276
330
274
100
AcDbEntity
  8
\U+5716\U+5C64 1
 62
     6
370
    25
100
AcDbVertex
100
AcDb2dVertex
 10
182.7855182148459
 20
230.5605836282675
 30
0.0
  0
SEQEND
  5
277
330
274
100
AcDbEntity
  8
\U+5716\U+5C64 1
370
    25
  0
ENDBLK
  5
273
330
270
100
AcDbEntity
  8
0
100
AcDbBlockEnd
  0
BLOCK
  5
27A
330
278
100
AcDbEntity
  8
0
100
AcDbBlockBegin
  2
block 72
 70
     0
 71
     0
 10
0.0
 20
0.0
 30
0.0
  3
block 72
  1

  0
POLYLINE
  5
27C
330
278
100
AcDbEntity
  8
\U+5716\U+5C64 1
 62
     6
370
    25
100
AcDb2dPolyline
 66
     1
 10
0.0
 20
0.0
 30
0.0
  0
VERTEX
  5
27D
330
27C
100
AcDbEntity
  8
\U+5716\U+5C64 1
 62
     6
370
    25
100
AcDbVertex
100
AcDb2dVertex
 10
180.4032331152154
 20
243.3355228794532
 30
0.0
  0
VERTEX
  5
27E
330
27C
100
AcDbEntity
  8
\U+5716\U+5C64 1
 62
     6
370
    25
100
AcDbVertex
100
AcDb2dVertex
 10
180.4032331152154
 20
240.9532377798226
 30
0.0
  0
SEQEND
  5
27F
330
27C
100
AcDbEntity
  8
\U+5716\U+5C64 1
370
    25
  0
ENDBLK
  5
27B
330
278
100
AcDbEntity
  8
0
100
AcDbBlockEnd
  0
BLOCK
  5
282
330
280
100
AcDbEntity
  8
0
100
AcDbBlockBegin
  2
block 73
 70
     0
 71
     0
 10
0.0
 20
0.0
 30
0.0
  3
block 73
  1

  0
POLYLINE
  5
284
330
280
100
AcDbEntity
  8
\U+5716\U+5C64 1
 62
     6
370
    25
100
AcDb2dPolyline
 66
     1
 10
0.0
 20
0.0
 30
0.0
  0
VERTEX
  5
285
330
284
100
AcDbEntity
  8
\U+5716\U+5C64 1
 62
     6
370
    25
100
AcDbVertex
100
AcDb2dVertex
 10
195.8882585177016
 20
236.4864962817374
 30
0.0
  0
VERTEX
  5
286
330
284
100
AcDbEntity
  8
\U+5716\U+5C64 1
 62
     6
370
    25
100
AcDbVertex
100
AcDb2dVertex
 10
195.8882585177016
 20
230.5605836282675
 30
0.0
  0
SEQEND
  5
287
330
284
100
AcDbEntity
  8
\U+5716\U+5C64 1
370
    25
  0
ENDBLK
  5
283
330
280
100
AcDbEntity
  8
0
100
AcDbBlockEnd
  0
BLOCK
  5
28A
330
288
100
AcDbEntity
  8
0
100
AcDbBlockBegin
  2
block 74
 70
     0
 71
     0
 10
0.0
 20
0.0
 30
0.0
  3
block 74
  1

  0
POLYLINE
  5
28C
330
288
100
AcDbEntity
  8
\U+5716\U+5C64 1
 62
     6
370
    25
100
AcDb2dPolyline
 66
     1
 10
0.0
 20
0.0
 30
0.0
  0
VERTEX
  5
28D
330
28C
100
AcDbEntity
  8
\U+5716\U+5C64 1
 62
     6
370
    25
100
AcDbVertex
100
AcDb2dVertex
 10
198.2701991075563
 20
243.3355228794532
 30
0.0
  0
VERTEX
  5
28E
330
28C
100
AcDbEntity
  8
\U+5716\U+5C64 1
 62
     6
370
    25
100
AcDbVertex
100
AcDb2dVertex
 10
198.2701991075563
 20
240.9532377798226
 30
0.0
  0
SEQEND
  5
28F
330
28C
100
AcDbEntity
  8
\U+5716\U+5C64 1
370
    25
  0
ENDBLK
  5
28B
330
288
100
AcDbEntity
  8
0
100
AcDbBlockEnd
  0
BLOCK
  5
292
330
290
100
AcDbEntity
  8
0
100
AcDbBlockBegin
  2
block 75
 70
     0
 71
     0
 10
0.0
 20
0.0
 30
0.0
  3
block 75
  1

  0
POLYLINE
  5
294
330
290
100
AcDbEntity
  8
\U+5716\U+5C64 1
 62
     6
370
    25
100
AcDb2dPolyline
 66
     1
 10
0.0
 20
0.0
 30
0.0
  0
VERTEX
  5
295
330
294
100
AcDbEntity
  8
\U+5716\U+5C64 1
 62
     6
370
    25
100
AcDbVertex
100
AcDb2dVertex
 10
205.8786975060147
 20
242.3826088396009
 30
0.0
  0
VERTEX
  5
296
330
294
100
AcDbEntity
  8
\U+5716\U+5C64 1
 62
     6
370
    25
100
AcDbVertex
100
AcDb2dVertex
 10
202.7109301175689
 20
230.5605836282675
 30
0.0
  0
SEQEND
  5
297
330
294
100
AcDbEntity
  8
\U+5716\U+5C64 1
370
    25
  0
ENDBLK
  5
293
330
290
100
AcDbEntity
  8
0
100
AcDbBlockEnd
  0
BLOCK
  5
29A
330
298
100
AcDbEntity
  8
0
100
AcDbBlockBegin
  2
block 76
 70
     0
 71
     0
 10
0.0
 20
0.0
 30
0.0
  3
block 76
  1

  0
SPLINE
  5
29C
330
298
100
AcDbEntity
  8
\U+5716\U+5C64 1
 62
     6
370
    25
100
AcDbSpline
210
0.0
220
0.0
230
1.0
 70
     8
 71
     3
 72
     8
 73
     4
 74
     0
 42
0.0000000001
 43
0.0000000001
 40
0.0
 40
0.0
 40
0.0
 40
0.0
 40
1.0
 40
1.0
 40
1.0
 40
1.0
 10
198.2701991075563
 20
240.9532377798226
 30
0.0
 10
196.9514156858086
 20
240.0804222628431
 30
0.0
 10
195.8782677342035
 20
238.0679684075297
 30
0.0
 10
195.8882585177016
 20
236.4864962817374
 30
0.0
  0
ENDBLK
  5
29B
330
298
100
AcDbEntity
  8
0
100
AcDbBlockEnd
  0
BLOCK
  5
29F
330
29D
100
AcDbEntity
  8
0
100
AcDbBlockBegin
  2
block 77
 70
     0
 71
     0
 10
0.0
 20
0.0
 30
0.0
  3
block 77
  1

  0
SPLINE
  5
2A1
330
29D
100
AcDbEntity
  8
\U+5716\U+5C64 1
 62
     6
370
    25
100
AcDbSpline
210
0.0
220
0.0
230
1.0
 70
     8
 71
     3
 72
     8
 73
     4
 74
     0
 42
0.0000000001
 43
0.0000000001
 40
0.0
 40
0.0
 40
0.0
 40
0.0
 40
1.0
 40
1.0
 40
1.0
 40
1.0
 10
182.7855182148459
 20
236.4864962817374
 30
0.0
 10
182.795508998344
 20
238.0679684075297
 30
0.0
 10
181.7220165369631
 20
240.0804222628431
 30
0.0
 10
180.4032331152154
 20
240.9532377798226
 30
0.0
  0
ENDBLK
  5
2A0
330
29D
100
AcDbEntity
  8
0
100
AcDbBlockEnd
  0
BLOCK
  5
2A4
330
2A2
100
AcDbEntity
  8
0
100
AcDbBlockBegin
  2
block 78
 70
     0
 71
     0
 10
0.0
 20
0.0
 30
0.0
  3
block 78
  1

  0
POLYLINE
  5
2A6
330
2A2
100
AcDbEntity
  8
\U+5716\U+5C64 1
  6
AI-Linetype-8
 62
     4
370
    25
100
AcDb2dPolyline
 66
     1
 10
0.0
 20
0.0
 30
0.0
  0
VERTEX
  5
2A7
330
2A6
100
AcDbEntity
  8
\U+5716\U+5C64 1
  6
AI-Linetype-8
 62
     4
370
    25
100
AcDbVertex
100
AcDb2dVertex
 10
189.3367161113859
 20
221.1969801770155
 30
0.0
  0
VERTEX
  5
2A8
330
2A6
100
AcDbEntity
  8
\U+5716\U+5C64 1
  6
AI-Linetype-8
 62
     4
370
    25
100
AcDbVertex
100
AcDb2dVertex
 10
189.3367161113859
 20
250.0565640954606
 30
0.0
  0
SEQEND
  5
2A9
330
2A6
100
AcDbEntity
  8
\U+5716\U+5C64 1
  6
AI-Linetype-8
370
    25
  0
ENDBLK
  5
2A5
330
2A2
100
AcDbEntity
  8
0
100
AcDbBlockEnd
  0
BLOCK
  5
2AD
330
2AB
100
AcDbEntity
  8
0
100
AcDbBlockBegin
  2
block 79
 70
     0
 71
     0
 10
0.0
 20
0.0
 30
0.0
  3
block 79
  1

  0
SPLINE
  5
2AF
330
2AB
100
AcDbEntity
  8
\U+5716\U+5C64 1
  6
AI-Linetype-9
 62
     3
370
    25
100
AcDbSpline
210
0.0
220
0.0
230
1.0
 70
     8
 71
     3
 72
    11
 73
     7
 74
     0
 42
0.0000000001
 43
0.0000000001
 40
0.0
 40
0.0
 40
0.0
 40
0.0
 40
1.0
 40
1.0
 40
1.0
 40
2.0
 40
2.0
 40
2.0
 40
2.0
 10
198.9030635656939
 20
243.3355228794532
 30
0.0
 10
200.2683558071741
 20
241.2808665766048
 30
0.0
 10
203.0409704827817
 20
240.7220717202634
 30
0.0
 10
205.09562678563
 20
242.0873639617436
 30
0.0
 10
205.2013912867994
 20
242.1552323875755
 30
0.0
 10
205.3956948003485
 20
242.3002710031857
 30
0.0
 10
205.4907794984682
 20
242.3826088396009
 30
0.0
  0
ENDBLK
  5
2AE
330
2AB
100
AcDbEntity
  8
0
100
AcDbBlockEnd
  0
BLOCK
  5
2B3
330
2B1
100
AcDbEntity
  8
0
100
AcDbBlockBegin
  2
block 80
 70
     0
 71
     0
 10
0.0
 20
0.0
 30
0.0
  3
block 80
  1

  0
SPLINE
  5
2B5
330
2B1
100
AcDbEntity
  8
\U+5716\U+5C64 1
  6
AI-Linetype-10
 62
     3
370
    25
100
AcDbSpline
210
0.0
220
0.0
230
1.0
 70
     8
 71
     3
 72
    11
 73
     7
 74
     0
 42
0.0000000001
 43
0.0000000001
 40
0.0
 40
0.0
 40
0.0
 40
0.0
 40
1.0
 40
1.0
 40
1.0
 40
2.0
 40
2.0
 40
2.0
 40
2.0
 10
173.1829972340793
 20
242.3826088396009
 30
0.0
 10
175.0747004129761
 20
240.7990696551539
 30
0.0
 10
177.8917568496613
 20
241.0488392426061
 30
0.0
 10
179.4751237792205
 20
242.940370166615
 30
0.0
 10
179.5578061254116
 20
243.0354548647347
 30
0.0
 10
179.7028447410218
 20
243.2295861233958
 30
0.0
 10
179.7707131668537
 20
243.3355228794532
 30
0.0
  0
ENDBLK
  5
2B4
330
2B1
100
AcDbEntity
  8
0
100
AcDbBlockEnd
  0
BLOCK
  5
2B9
330
2B7
100
AcDbEntity
  8
0
100
AcDbBlockBegin
  2
block 81
 70
     0
 71
     0
 10
0.0
 20
0.0
 30
0.0
  3
block 81
  1

  0
POLYLINE
  5
2BB
330
2B7
100
AcDbEntity
  8
\U+5716\U+5C64 1
 62
     6
370
    25
100
AcDb2dPolyline
 66
     1
 10
0.0
 20
0.0
 30
0.0
  0
VERTEX
  5
2BC
330
2BB
100
AcDbEntity
  8
\U+5716\U+5C64 1
 62
     6
370
    25
100
AcDbVertex
100
AcDb2dVertex
 10
173.0927356728207
 20
242.3826088396009
 30
0.0
  0
VERTEX
  5
2BD
330
2BB
100
AcDbEntity
  8
\U+5716\U+5C64 1
 62
     6
370
    25
100
AcDbVertex
100
AcDb2dVertex
 10
173.3445723189277
 20
240.3312253796227
 30
0.0
  0
SEQEND
  5
2BE
330
2BB
100
AcDbEntity
  8
\U+5716\U+5C64 1
370
    25
  0
ENDBLK
  5
2BA
330
2B7
100
AcDbEntity
  8
0
100
AcDbBlockEnd
  0
BLOCK
  5
2C1
330
2BF
100
AcDbEntity
  8
0
100
AcDbBlockBegin
  2
block 82
 70
     0
 71
     0
 10
0.0
 20
0.0
 30
0.0
  3
block 82
  1

  0
POLYLINE
  5
2C3
330
2BF
100
AcDbEntity
  8
\U+5716\U+5C64 1
 62
     6
370
    25
100
AcDb2dPolyline
 66
     1
 10
0.0
 20
0.0
 30
0.0
  0
VERTEX
  5
2C4
330
2C3
100
AcDbEntity
  8
\U+5716\U+5C64 1
 62
     6
370
    25
100
AcDbVertex
100
AcDb2dVertex
 10
172.7950792265328
 20
242.3826088396009
 30
0.0
  0
VERTEX
  5
2C5
330
2C3
100
AcDbEntity
  8
\U+5716\U+5C64 1
 62
     6
370
    25
100
AcDbVertex
100
AcDb2dVertex
 10
176.4592852019009
 20
242.3826088396009
 30
0.0
  0
SEQEND
  5
2C6
330
2C3
100
AcDbEntity
  8
\U+5716\U+5C64 1
370
    25
  0
ENDBLK
  5
2C2
330
2BF
100
AcDbEntity
  8
0
100
AcDbBlockEnd
  0
BLOCK
  5
2C9
330
2C7
100
AcDbEntity
  8
0
100
AcDbBlockBegin
  2
block 83
 70
     0
 71
     0
 10
0.0
 20
0.0
 30
0.0
  3
block 83
  1

  0
POLYLINE
  5
2CB
330
2C7
100
AcDbEntity
  8
\U+5716\U+5C64 1
 62
     6
370
    25
100
AcDb2dPolyline
 66
     1
 10
0.0
 20
0.0
 30
0.0
  0
VERTEX
  5
2CC
330
2CB
100
AcDbEntity
  8
\U+5716\U+5C64 1
 62
     6
370
    25
100
AcDbVertex
100
AcDb2dVertex
 10
205.8786975060147
 20
242.3826088396009
 30
0.0
  0
VERTEX
  5
2CD
330
2CB
100
AcDbEntity
  8
\U+5716\U+5C64 1
 62
     6
370
    25
100
AcDbVertex
100
AcDb2dVertex
 10
202.2141470208709
 20
242.3826088396009
 30
0.0
  0
SEQEND
  5
2CE
330
2CB
100
AcDbEntity
  8
\U+5716\U+5C64 1
370
    25
  0
ENDBLK
  5
2CA
330
2C7
100
AcDbEntity
  8
0
100
AcDbBlockEnd
  0
BLOCK
  5
2D1
330
2CF
100
AcDbEntity
  8
0
100
AcDbBlockBegin
  2
block 84
 70
     0
 71
     0
 10
0.0
 20
0.0
 30
0.0
  3
block 84
  1

  0
POLYLINE
  5
2D3
330
2CF
100
AcDbEntity
  8
\U+5716\U+5C64 1
 62
     6
370
    25
100
AcDb2dPolyline
 66
     1
 10
0.0
 20
0.0
 30
0.0
  0
VERTEX
  5
2D4
330
2D3
100
AcDbEntity
  8
\U+5716\U+5C64 1
 62
     6
370
    25
100
AcDbVertex
100
AcDb2dVertex
 10
202.11423918589
 20
243.3355228794532
 30
0.0
  0
VERTEX
  5
2D5
330
2D3
100
AcDbEntity
  8
\U+5716\U+5C64 1
 62
     6
370
    25
100
AcDbVertex
100
AcDb2dVertex
 10
202.2141470208709
 20
242.3826088396009
 30
0.0
  0
SEQEND
  5
2D6
330
2D3
100
AcDbEntity
  8
\U+5716\U+5C64 1
370
    25
  0
ENDBLK
  5
2D2
330
2CF
100
AcDbEntity
  8
0
100
AcDbBlockEnd
  0
BLOCK
  5
2D9
330
2D7
100
AcDbEntity
  8
0
100
AcDbBlockBegin
  2
block 85
 70
     0
 71
     0
 10
0.0
 20
0.0
 30
0.0
  3
block 85
  1

  0
POLYLINE
  5
2DB
330
2D7
100
AcDbEntity
  8
\U+5716\U+5C64 1
 62
     6
370
    25
100
AcDb2dPolyline
 66
     1
 10
0.0
 20
0.0
 30
0.0
  0
VERTEX
  5
2DC
330
2DB
100
AcDbEntity
  8
\U+5716\U+5C64 1
 62
     6
370
    25
100
AcDbVertex
100
AcDb2dVertex
 10
205.5810410597268
 20
242.3826088396009
 30
0.0
  0
VERTEX
  5
2DD
330
2DB
100
AcDbEntity
  8
\U+5716\U+5C64 1
 62
     6
370
    25
100
AcDbVertex
100
AcDb2dVertex
 10
205.3292044136198
 20
240.3312253796227
 30
0.0
  0
SEQEND
  5
2DE
330
2DB
100
AcDbEntity
  8
\U+5716\U+5C64 1
370
    25
  0
ENDBLK
  5
2DA
330
2D7
100
AcDbEntity
  8
0
100
AcDbBlockEnd
  0
BLOCK
  5
2E1
330
2DF
100
AcDbEntity
  8
0
100
AcDbBlockBegin
  2
block 86
 70
     0
 71
     0
 10
0.0
 20
0.0
 30
0.0
  3
block 86
  1

  0
POLYLINE
  5
2E3
330
2DF
100
AcDbEntity
  8
\U+5716\U+5C64 1
 62
     6
370
    25
100
AcDb2dPolyline
 66
     1
 10
0.0
 20
0.0
 30
0.0
  0
VERTEX
  5
2E4
330
2E3
100
AcDbEntity
  8
\U+5716\U+5C64 1
 62
     6
370
    25
100
AcDbVertex
100
AcDb2dVertex
 10
176.5595375466576
 20
243.3355228794532
 30
0.0
  0
VERTEX
  5
2E5
330
2E3
100
AcDbEntity
  8
\U+5716\U+5C64 1
 62
     6
370
    25
100
AcDbVertex
100
AcDb2dVertex
 10
176.4592852019009
 20
242.3826088396009
 30
0.0
  0
SEQEND
  5
2E6
330
2E3
100
AcDbEntity
  8
\U+5716\U+5C64 1
370
    25
  0
ENDBLK
  5
2E2
330
2DF
100
AcDbEntity
  8
0
100
AcDbBlockEnd
  0
BLOCK
  5
2E9
330
2E7
100
AcDbEntity
  8
0
100
AcDbBlockBegin
  2
block 87
 70
     0
 71
     0
 10
0.0
 20
0.0
 30
0.0
  3
block 87
  1

  0
SPLINE
  5
2EB
330
2E7
100
AcDbEntity
  8
\U+5716\U+5C64 1
 62
     6
370
    25
100
AcDbSpline
210
0.0
220
0.0
230
1.0
 70
     8
 71
     3
 72
    11
 73
     7
 74
     0
 42
0.0000000001
 43
0.0000000001
 40
0.0
 40
0.0
 40
0.0
 40
0.0
 40
1.0
 40
1.0
 40
1.0
 40
2.0
 40
2.0
 40
2.0
 40
2.0
 10
86.55015744394412
 20
350.4989059934973
 30
0.0
 10
85.29717538937345
 20
351.7520603029559
 30
0.0
 10
83.26560124150343
 20
351.7520603029559
 30
0.0
 10
82.01261918693277
 20
350.4989059934973
 30
0.0
 10
82.01261918693277
 20
350.4989059934973
 30
0.0
 10
82.01261918693277
 20
350.4989059934973
 30
0.0
 10
82.01261918693277
 20
350.4989059934973
 30
0.0
  0
ENDBLK
  5
2EA
330
2E7
100
AcDbEntity
  8
0
100
AcDbBlockEnd
  0
BLOCK
  5
2EE
330
2EC
100
AcDbEntity
  8
0
100
AcDbBlockBegin
  2
block 88
 70
     0
 71
     0
 10
0.0
 20
0.0
 30
0.0
  3
block 88
  1

  0
SPLINE
  5
2F0
330
2EC
100
AcDbEntity
  8
\U+5716\U+5C64 1
 62
     6
370
    25
100
AcDbSpline
210
0.0
220
0.0
230
1.0
 70
     8
 71
     3
 72
    11
 73
     7
 74
     0
 42
0.0000000001
 43
0.0000000001
 40
0.0
 40
0.0
 40
0.0
 40
0.0
 40
1.0
 40
1.0
 40
1.0
 40
2.0
 40
2.0
 40
2.0
 40
2.0
 10
64.84104617703643
 20
333.327332983601
 30
0.0
 10
63.58789186757787
 20
332.0743509290303
 30
0.0
 10
63.58789186757787
 20
330.0427767811603
 30
0.0
 10
64.84104617703643
 20
328.7896224717018
 30
0.0
 10
64.84104617703643
 20
328.7896224717018
 30
0.0
 10
64.84104617703643
 20
328.7896224717018
 30
0.0
 10
64.84104617703643
 20
328.7896224717018
 30
0.0
  0
ENDBLK
  5
2EF
330
2EC
100
AcDbEntity
  8
0
100
AcDbBlockEnd
  0
BLOCK
  5
2F3
330
2F1
100
AcDbEntity
  8
0
100
AcDbBlockBegin
  2
block 89
 70
     0
 71
     0
 10
0.0
 20
0.0
 30
0.0
  3
block 89
  1

  0
POLYLINE
  5
2F5
330
2F1
100
AcDbEntity
  8
\U+5716\U+5C64 1
  6
AI-Linetype-11
 62
     4
370
    25
100
AcDb2dPolyline
 66
     1
 10
0.0
 20
0.0
 30
0.0
  0
VERTEX
  5
2F6
330
2F5
100
AcDbEntity
  8
\U+5716\U+5C64 1
  6
AI-Linetype-11
 62
     4
370
    25
100
AcDbVertex
100
AcDb2dVertex
 10
97.5574170355196
 20
317.7823628801263
 30
0.0
  0
VERTEX
  5
2F7
330
2F5
100
AcDbEntity
  8
\U+5716\U+5C64 1
  6
AI-Linetype-11
 62
     4
370
    25
100
AcDbVertex
100
AcDb2dVertex
 10
71.00518734046938
 20
344.3345925751765
 30
0.0
  0
SEQEND
  5
2F8
330
2F5
100
AcDbEntity
  8
\U+5716\U+5C64 1
  6
AI-Linetype-11
370
    25
  0
ENDBLK
  5
2F4
330
2F1
100
AcDbEntity
  8
0
100
AcDbBlockEnd
  0
BLOCK
  5
2FC
330
2FA
100
AcDbEntity
  8
0
100
AcDbBlockBegin
  2
block 90
 70
     0
 71
     0
 10
0.0
 20
0.0
 30
0.0
  3
block 90
  1

  0
POLYLINE
  5
2FE
330
2FA
100
AcDbEntity
  8
\U+5716\U+5C64 1
 62
     6
370
    25
100
AcDb2dPolyline
 66
     1
 10
0.0
 20
0.0
 30
0.0
  0
VERTEX
  5
2FF
330
2FE
100
AcDbEntity
  8
\U+5716\U+5C64 1
 62
     6
370
    25
100
AcDbVertex
100
AcDb2dVertex
 10
82.01261918693277
 20
350.4989059934973
 30
0.0
  0
VERTEX
  5
300
330
2FE
100
AcDbEntity
  8
\U+5716\U+5C64 1
 62
     6
370
    25
100
AcDbVertex
100
AcDb2dVertex
 10
64.84104617703643
 20
333.327332983601
 30
0.0
  0
SEQEND
  5
301
330
2FE
100
AcDbEntity
  8
\U+5716\U+5C64 1
370
    25
  0
ENDBLK
  5
2FD
330
2FA
100
AcDbEntity
  8
0
100
AcDbBlockEnd
  0
BLOCK
  5
304
330
302
100
AcDbEntity
  8
0
100
AcDbBlockBegin
  2
block 91
 70
     0
 71
     0
 10
0.0
 20
0.0
 30
0.0
  3
block 91
  1

  0
POLYLINE
  5
306
330
302
100
AcDbEntity
  8
\U+5716\U+5C64 1
 62
     6
370
    25
100
AcDb2dPolyline
 66
     1
 10
0.0
 20
0.0
 30
0.0
  0
VERTEX
  5
307
330
306
100
AcDbEntity
  8
\U+5716\U+5C64 1
 62
     6
370
    25
100
AcDbVertex
100
AcDb2dVertex
 10
82.01261918693277
 20
311.6180494618054
 30
0.0
  0
VERTEX
  5
308
330
306
100
AcDbEntity
  8
\U+5716\U+5C64 1
 62
     6
370
    25
100
AcDbVertex
100
AcDb2dVertex
 10
64.84104617703643
 20
328.7896224717018
 30
0.0
  0
SEQEND
  5
309
330
306
100
AcDbEntity
  8
\U+5716\U+5C64 1
370
    25
  0
ENDBLK
  5
305
330
302
100
AcDbEntity
  8
0
100
AcDbBlockEnd
  0
BLOCK
  5
30C
330
30A
100
AcDbEntity
  8
0
100
AcDbBlockBegin
  2
block 92
 70
     0
 71
     0
 10
0.0
 20
0.0
 30
0.0
  3
block 92
  1

  0
POLYLINE
  5
30E
330
30A
100
AcDbEntity
  8
\U+5716\U+5C64 1
 62
     6
370
    25
100
AcDb2dPolyline
 66
     1
 10
0.0
 20
0.0
 30
0.0
  0
VERTEX
  5
30F
330
30E
100
AcDbEntity
  8
\U+5716\U+5C64 1
 62
     6
370
    25
100
AcDbVertex
100
AcDb2dVertex
 10
103.7217304538405
 20
333.327332983601
 30
0.0
  0
VERTEX
  5
310
330
30E
100
AcDbEntity
  8
\U+5716\U+5C64 1
 62
     6
370
    25
100
AcDbVertex
100
AcDb2dVertex
 10
86.55015744394412
 20
350.4989059934973
 30
0.0
  0
SEQEND
  5
311
330
30E
100
AcDbEntity
  8
\U+5716\U+5C64 1
370
    25
  0
ENDBLK
  5
30D
330
30A
100
AcDbEntity
  8
0
100
AcDbBlockEnd
  0
BLOCK
  5
314
330
312
100
AcDbEntity
  8
0
100
AcDbBlockBegin
  2
block 93
 70
     0
 71
     0
 10
0.0
 20
0.0
 30
0.0
  3
block 93
  1

  0
POLYLINE
  5
316
330
312
100
AcDbEntity
  8
\U+5716\U+5C64 1
  6
AI-Linetype-12
 62
     4
370
    25
100
AcDb2dPolyline
 66
     1
 10
0.0
 20
0.0
 30
0.0
  0
VERTEX
  5
317
330
316
100
AcDbEntity
  8
\U+5716\U+5C64 1
  6
AI-Linetype-12
 62
     4
370
    25
100
AcDbVertex
100
AcDb2dVertex
 10
97.5574170355196
 20
344.3345925751765
 30
0.0
  0
VERTEX
  5
318
330
316
100
AcDbEntity
  8
\U+5716\U+5C64 1
  6
AI-Linetype-12
 62
     4
370
    25
100
AcDbVertex
100
AcDb2dVertex
 10
71.00518734046938
 20
317.7823628801263
 30
0.0
  0
SEQEND
  5
319
330
316
100
AcDbEntity
  8
\U+5716\U+5C64 1
  6
AI-Linetype-12
370
    25
  0
ENDBLK
  5
315
330
312
100
AcDbEntity
  8
0
100
AcDbBlockEnd
  0
BLOCK
  5
31D
330
31B
100
AcDbEntity
  8
0
100
AcDbBlockBegin
  2
block 94
 70
     0
 71
     0
 10
0.0
 20
0.0
 30
0.0
  3
block 94
  1

  0
SPLINE
  5
31F
330
31B
100
AcDbEntity
  8
\U+5716\U+5C64 1
 62
     6
370
    25
100
AcDbSpline
210
0.0
220
0.0
230
1.0
 70
    11
 71
     3
 72
    23
 73
    19
 74
     0
 42
0.0000000001
 43
0.0000000001
 40
0.0
 40
0.0
 40
0.0
 40
0.0
 40
1.0
 40
1.0
 40
1.0
 40
2.0
 40
2.0
 40
2.0
 40
3.0
 40
3.0
 40
3.0
 40
4.0
 40
4.0
 40
4.0
 40
5.0
 40
5.0
 40
5.0
 40
6.0
 40
6.0
 40
6.0
 40
6.0
 10
90.83258621197838
 20
331.0585638550953
 30
0.0
 10
90.83258621197838
 20
334.6766055205067
 30
0.0
 10
87.8996022357377
 20
337.6097617516353
 30
0.0
 10
84.28138831543843
 20
337.6097617516353
 30
0.0
 10
80.66317439513918
 20
337.6097617516353
 30
0.0
 10
77.73019041889849
 20
334.6766055205067
 30
0.0
 10
77.73019041889849
 20
331.0585638550953
 30
0.0
 10
77.73019041889849
 20
327.4403499347961
 30
0.0
 10
80.66317439513918
 20
324.5071937036675
 30
0.0
 10
84.28138831543843
 20
324.5071937036675
 30
0.0
 10
87.8996022357377
 20
324.5071937036675
 30
0.0
 10
90.83258621197838
 20
327.4403499347961
 30
0.0
 10
90.83258621197838
 20
331.0585638550953
 30
0.0
 10
90.83258621197838
 20
331.0585638550953
 30
0.0
 10
90.83258621197838
 20
331.0585638550953
 30
0.0
 10
90.83258621197838
 20
331.0585638550953
 30
0.0
 10
90.83258621197838
 20
331.0585638550953
 30
0.0
 10
90.83258621197838
 20
331.0585638550953
 30
0.0
 10
90.83258621197838
 20
331.0585638550953
 30
0.0
  0
ENDBLK
  5
31E
330
31B
100
AcDbEntity
  8
0
100
AcDbBlockEnd
  0
BLOCK
  5
322
330
320
100
AcDbEntity
  8
0
100
AcDbBlockBegin
  2
block 95
 70
     0
 71
     0
 10
0.0
 20
0.0
 30
0.0
  3
block 95
  1

  0
POLYLINE
  5
324
330
320
100
AcDbEntity
  8
\U+5716\U+5C64 1
 62
     6
370
    25
100
AcDb2dPolyline
 66
     1
 10
0.0
 20
0.0
 30
0.0
  0
VERTEX
  5
325
330
324
100
AcDbEntity
  8
\U+5716\U+5C64 1
 62
     6
370
    25
100
AcDbVertex
100
AcDb2dVertex
 10
84.28138831543843
 20
317.1612117543658
 30
0.0
  0
VERTEX
  5
326
330
324
100
AcDbEntity
  8
\U+5716\U+5C64 1
 62
     6
370
    25
100
AcDbVertex
100
AcDb2dVertex
 10
70.38403621470889
 20
331.0585638550953
 30
0.0
  0
SEQEND
  5
327
330
324
100
AcDbEntity
  8
\U+5716\U+5C64 1
370
    25
  0
ENDBLK
  5
323
330
320
100
AcDbEntity
  8
0
100
AcDbBlockEnd
  0
BLOCK
  5
32A
330
328
100
AcDbEntity
  8
0
100
AcDbBlockBegin
  2
block 96
 70
     0
 71
     0
 10
0.0
 20
0.0
 30
0.0
  3
block 96
  1

  0
POLYLINE
  5
32C
330
328
100
AcDbEntity
  8
\U+5716\U+5C64 1
 62
     6
370
    25
100
AcDb2dPolyline
 66
     1
 10
0.0
 20
0.0
 30
0.0
  0
VERTEX
  5
32D
330
32C
100
AcDbEntity
  8
\U+5716\U+5C64 1
 62
     6
370
    25
100
AcDbVertex
100
AcDb2dVertex
 10
98.178740416168
 20
331.0585638550953
 30
0.0
  0
VERTEX
  5
32E
330
32C
100
AcDbEntity
  8
\U+5716\U+5C64 1
 62
     6
370
    25
100
AcDbVertex
100
AcDb2dVertex
 10
84.28138831543843
 20
344.955743700937
 30
0.0
  0
SEQEND
  5
32F
330
32C
100
AcDbEntity
  8
\U+5716\U+5C64 1
370
    25
  0
ENDBLK
  5
32B
330
328
100
AcDbEntity
  8
0
100
AcDbBlockEnd
  0
BLOCK
  5
332
330
330
100
AcDbEntity
  8
0
100
AcDbBlockBegin
  2
block 97
 70
     0
 71
     0
 10
0.0
 20
0.0
 30
0.0
  3
block 97
  1

  0
SPLINE
  5
334
330
330
100
AcDbEntity
  8
\U+5716\U+5C64 1
 62
     6
370
    25
100
AcDbSpline
210
0.0
220
0.0
230
1.0
 70
    11
 71
     3
 72
    23
 73
    19
 74
     0
 42
0.0000000001
 43
0.0000000001
 40
0.0
 40
0.0
 40
0.0
 40
0.0
 40
1.0
 40
1.0
 40
1.0
 40
2.0
 40
2.0
 40
2.0
 40
3.0
 40
3.0
 40
3.0
 40
4.0
 40
4.0
 40
4.0
 40
5.0
 40
5.0
 40
5.0
 40
6.0
 40
6.0
 40
6.0
 40
6.0
 10
93.21487131160889
 20
331.0585638550953
 30
0.0
 10
93.21487131160889
 20
335.9924606091602
 30
0.0
 10
89.21528506950327
 20
339.9920468512658
 30
0.0
 10
84.28138831543843
 20
339.9920468512658
 30
0.0
 10
79.34749156137362
 20
339.9920468512658
 30
0.0
 10
75.34790531926798
 20
335.9924606091602
 30
0.0
 10
75.34790531926798
 20
331.0585638550953
 30
0.0
 10
75.34790531926798
 20
326.1246671010305
 30
0.0
 10
79.34749156137362
 20
322.1250808589249
 30
0.0
 10
84.28138831543843
 20
322.1250808589249
 30
0.0
 10
89.21528506950327
 20
322.1250808589249
 30
0.0
 10
93.21487131160889
 20
326.1246671010305
 30
0.0
 10
93.21487131160889
 20
331.0585638550953
 30
0.0
 10
93.21487131160889
 20
331.0585638550953
 30
0.0
 10
93.21487131160889
 20
331.0585638550953
 30
0.0
 10
93.21487131160889
 20
331.0585638550953
 30
0.0
 10
93.21487131160889
 20
331.0585638550953
 30
0.0
 10
93.21487131160889
 20
331.0585638550953
 30
0.0
 10
93.21487131160889
 20
331.0585638550953
 30
0.0
  0
ENDBLK
  5
333
330
330
100
AcDbEntity
  8
0
100
AcDbBlockEnd
  0
BLOCK
  5
337
330
335
100
AcDbEntity
  8
0
100
AcDbBlockBegin
  2
block 98
 70
     0
 71
     0
 10
0.0
 20
0.0
 30
0.0
  3
block 98
  1

  0
POLYLINE
  5
339
330
335
100
AcDbEntity
  8
\U+5716\U+5C64 1
 62
     6
370
    25
100
AcDb2dPolyline
 66
     1
 10
0.0
 20
0.0
 30
0.0
  0
VERTEX
  5
33A
330
339
100
AcDbEntity
  8
\U+5716\U+5C64 1
 62
     6
370
    25
100
AcDbVertex
100
AcDb2dVertex
 10
84.28138831543843
 20
344.955743700937
 30
0.0
  0
VERTEX
  5
33B
330
339
100
AcDbEntity
  8
\U+5716\U+5C64 1
 62
     6
370
    25
100
AcDbVertex
100
AcDb2dVertex
 10
70.38403621470889
 20
331.0585638550953
 30
0.0
  0
SEQEND
  5
33C
330
339
100
AcDbEntity
  8
\U+5716\U+5C64 1
370
    25
  0
ENDBLK
  5
338
330
335
100
AcDbEntity
  8
0
100
AcDbBlockEnd
  0
BLOCK
  5
33F
330
33D
100
AcDbEntity
  8
0
100
AcDbBlockBegin
  2
block 99
 70
     0
 71
     0
 10
0.0
 20
0.0
 30
0.0
  3
block 99
  1

  0
POLYLINE
  5
341
330
33D
100
AcDbEntity
  8
\U+5716\U+5C64 1
 62
     6
370
    25
100
AcDb2dPolyline
 66
     1
 10
0.0
 20
0.0
 30
0.0
  0
VERTEX
  5
342
330
341
100
AcDbEntity
  8
\U+5716\U+5C64 1
 62
     6
370
    25
100
AcDbVertex
100
AcDb2dVertex
 10
98.178740416168
 20
331.0585638550953
 30
0.0
  0
VERTEX
  5
343
330
341
100
AcDbEntity
  8
\U+5716\U+5C64 1
 62
     6
370
    25
100
AcDbVertex
100
AcDb2dVertex
 10
84.28138831543843
 20
317.1612117543658
 30
0.0
  0
SEQEND
  5
344
330
341
100
AcDbEntity
  8
\U+5716\U+5C64 1
370
    25
  0
ENDBLK
  5
340
330
33D
100
AcDbEntity
  8
0
100
AcDbBlockEnd
  0
BLOCK
  5
347
330
345
100
AcDbEntity
  8
0
100
AcDbBlockBegin
  2
block 100
 70
     0
 71
     0
 10
0.0
 20
0.0
 30
0.0
  3
block 100
  1

  0
POLYLINE
  5
349
330
345
100
AcDbEntity
  8
\U+5716\U+5C64 1
 62
     6
370
    25
100
AcDb2dPolyline
 66
     1
 10
0.0
 20
0.0
 30
0.0
  0
VERTEX
  5
34A
330
349
100
AcDbEntity
  8
\U+5716\U+5C64 1
 62
     6
370
    25
100
AcDbVertex
100
AcDb2dVertex
 10
103.7217304538405
 20
328.7896224717018
 30
0.0
  0
VERTEX
  5
34B
330
349
100
AcDbEntity
  8
\U+5716\U+5C64 1
 62
     6
370
    25
100
AcDbVertex
100
AcDb2dVertex
 10
86.55015744394412
 20
311.6180494618054
 30
0.0
  0
SEQEND
  5
34C
330
349
100
AcDbEntity
  8
\U+5716\U+5C64 1
370
    25
  0
ENDBLK
  5
348
330
345
100
AcDbEntity
  8
0
100
AcDbBlockEnd
  0
BLOCK
  5
34F
330
34D
100
AcDbEntity
  8
0
100
AcDbBlockBegin
  2
block 101
 70
     0
 71
     0
 10
0.0
 20
0.0
 30
0.0
  3
block 101
  1

  0
SPLINE
  5
351
330
34D
100
AcDbEntity
  8
\U+5716\U+5C64 1
 62
     6
370
    25
100
AcDbSpline
210
0.0
220
0.0
230
1.0
 70
     8
 71
     3
 72
    11
 73
     7
 74
     0
 42
0.0000000001
 43
0.0000000001
 40
0.0
 40
0.0
 40
0.0
 40
0.0
 40
1.0
 40
1.0
 40
1.0
 40
2.0
 40
2.0
 40
2.0
 40
2.0
 10
82.01261918693277
 20
311.6180494618054
 30
0.0
 10
83.26560124150343
 20
310.3650674072347
 30
0.0
 10
85.29717538937345
 20
310.3650674072347
 30
0.0
 10
86.55015744394412
 20
311.6180494618054
 30
0.0
 10
86.55015744394412
 20
311.6180494618054
 30
0.0
 10
86.55015744394412
 20
311.6180494618054
 30
0.0
 10
86.55015744394412
 20
311.6180494618054
 30
0.0
  0
ENDBLK
  5
350
330
34D
100
AcDbEntity
  8
0
100
AcDbBlockEnd
  0
BLOCK
  5
354
330
352
100
AcDbEntity
  8
0
100
AcDbBlockBegin
  2
block 102
 70
     0
 71
     0
 10
0.0
 20
0.0
 30
0.0
  3
block 102
  1

  0
SPLINE
  5
356
330
352
100
AcDbEntity
  8
\U+5716\U+5C64 1
 62
     6
370
    25
100
AcDbSpline
210
0.0
220
0.0
230
1.0
 70
     8
 71
     3
 72
    11
 73
     7
 74
     0
 42
0.0000000001
 43
0.0000000001
 40
0.0
 40
0.0
 40
0.0
 40
0.0
 40
1.0
 40
1.0
 40
1.0
 40
2.0
 40
2.0
 40
2.0
 40
2.0
 10
103.7217304538405
 20
328.7896224717018
 30
0.0
 10
104.974884763299
 20
330.0427767811603
 30
0.0
 10
104.974884763299
 20
332.0743509290303
 30
0.0
 10
103.7217304538405
 20
333.327332983601
 30
0.0
 10
103.7217304538405
 20
333.327332983601
 30
0.0
 10
103.7217304538405
 20
333.327332983601
 30
0.0
 10
103.7217304538405
 20
333.327332983601
 30
0.0
  0
ENDBLK
  5
355
330
352
100
AcDbEntity
  8
0
100
AcDbBlockEnd
  0
BLOCK
  5
359
330
357
100
AcDbEntity
  8
0
100
AcDbBlockBegin
  2
block 103
 70
     0
 71
     0
 10
0.0
 20
0.0
 30
0.0
  3
block 103
  1

  0
POLYLINE
  5
35B
330
357
100
AcDbEntity
  8
\U+5716\U+5C64 1
 62
     6
370
    25
100
AcDb2dPolyline
 66
     1
 10
0.0
 20
0.0
 30
0.0
  0
VERTEX
  5
35C
330
35B
100
AcDbEntity
  8
\U+5716\U+5C64 1
 62
     6
370
    25
100
AcDbVertex
100
AcDb2dVertex
 10
82.80740323969454
 20
309.5599480611991
 30
0.0
  0
VERTEX
  5
35D
330
35B
100
AcDbEntity
  8
\U+5716\U+5C64 1
 62
     6
370
    25
100
AcDbVertex
100
AcDb2dVertex
 10
64.46725307029759
 20
327.900098230596
 30
0.0
  0
VERTEX
  5
35E
330
35B
100
AcDbEntity
  8
\U+5716\U+5C64 1
 62
     6
370
    25
100
AcDbVertex
100
AcDb2dVertex
 10
64.04608986938678
 20
327.900098230596
 30
0.0
  0
VERTEX
  5
35F
330
35B
100
AcDbEntity
  8
\U+5716\U+5C64 1
 62
     6
370
    25
100
AcDbVertex
100
AcDb2dVertex
 10
62.78277252154222
 20
329.1634155784406
 30
0.0
  0
SEQEND
  5
360
330
35B
100
AcDbEntity
  8
\U+5716\U+5C64 1
370
    25
  0
POLYLINE
  5
361
330
357
100
AcDbEntity
  8
\U+5716\U+5C64 1
 62
     6
370
    25
100
AcDb2dPolyline
 66
     1
 10
0.0
 20
0.0
 30
0.0
  0
VERTEX
  5
362
330
361
100
AcDbEntity
  8
\U+5716\U+5C64 1
 62
     6
370
    25
100
AcDbVertex
100
AcDb2dVertex
 10
62.78277252154222
 20
329.1634155784406
 30
0.0
  0
VERTEX
  5
363
330
361
100
AcDbEntity
  8
\U+5716\U+5C64 1
 62
     6
370
    25
100
AcDbVertex
100
AcDb2dVertex
 10
62.51577744530019
 20
329.4815703563884
 30
0.0
  0
VERTEX
  5
364
330
361
100
AcDbEntity
  8
\U+5716\U+5C64 1
 62
     6
370
    25
100
AcDbVertex
100
AcDb2dVertex
 10
62.30821030538299
 20
329.8412385623196
 30
0.0
  0
VERTEX
  5
365
330
361
100
AcDbEntity
  8
\U+5716\U+5C64 1
 62
     6
370
    25
100
AcDbVertex
100
AcDb2dVertex
 10
62.16610002286708
 20
330.2313958834087
 30
0.0
  0
VERTEX
  5
366
330
361
100
AcDbEntity
  8
\U+5716\U+5C64 1
 62
     6
370
    25
100
AcDbVertex
100
AcDb2dVertex
 10
62.09409747972568
 20
330.6403289872788
 30
0.0
  0
VERTEX
  5
367
330
361
100
AcDbEntity
  8
\U+5716\U+5C64 1
 62
     6
370
    25
100
AcDbVertex
100
AcDb2dVertex
 10
62.09409747972568
 20
331.0556355220011
 30
0.0
  0
VERTEX
  5
368
330
361
100
AcDbEntity
  8
\U+5716\U+5C64 1
 62
     6
370
    25
100
AcDbVertex
100
AcDb2dVertex
 10
62.16610002286708
 20
331.4645686258711
 30
0.0
  0
VERTEX
  5
369
330
361
100
AcDbEntity
  8
\U+5716\U+5C64 1
 62
     6
370
    25
100
AcDbVertex
100
AcDb2dVertex
 10
62.30821030538299
 20
331.8547259469603
 30
0.0
  0
VERTEX
  5
36A
330
361
100
AcDbEntity
  8
\U+5716\U+5C64 1
 62
     6
370
    25
100
AcDbVertex
100
AcDb2dVertex
 10
62.51577744530019
 20
332.2143941528915
 30
0.0
  0
VERTEX
  5
36B
330
361
100
AcDbEntity
  8
\U+5716\U+5C64 1
 62
     6
370
    25
100
AcDbVertex
100
AcDb2dVertex
 10
62.78277252154222
 20
332.5325489308393
 30
0.0
  0
SEQEND
  5
36C
330
361
100
AcDbEntity
  8
\U+5716\U+5C64 1
370
    25
  0
POLYLINE
  5
36D
330
357
100
AcDbEntity
  8
\U+5716\U+5C64 1
 62
     6
370
    25
100
AcDb2dPolyline
 66
     1
 10
0.0
 20
0.0
 30
0.0
  0
VERTEX
  5
36E
330
36D
100
AcDbEntity
  8
\U+5716\U+5C64 1
 62
     6
370
    25
100
AcDbVertex
100
AcDb2dVertex
 10
62.78277252154222
 20
332.5325489308393
 30
0.0
  0
VERTEX
  5
36F
330
36D
100
AcDbEntity
  8
\U+5716\U+5C64 1
 62
     6
370
    25
100
AcDbVertex
100
AcDb2dVertex
 10
81.12292269093916
 20
350.8726991002362
 30
0.0
  0
VERTEX
  5
370
330
36D
100
AcDbEntity
  8
\U+5716\U+5C64 1
 62
     6
370
    25
100
AcDbVertex
100
AcDb2dVertex
 10
81.12292269093916
 20
351.293862301147
 30
0.0
  0
VERTEX
  5
371
330
36D
100
AcDbEntity
  8
\U+5716\U+5C64 1
 62
     6
370
    25
100
AcDbVertex
100
AcDb2dVertex
 10
82.38624003878371
 20
352.5571796489916
 30
0.0
  0
SEQEND
  5
372
330
36D
100
AcDbEntity
  8
\U+5716\U+5C64 1
370
    25
  0
POLYLINE
  5
373
330
357
100
AcDbEntity
  8
\U+5716\U+5C64 1
 62
     6
370
    25
100
AcDb2dPolyline
 66
     1
 10
0.0
 20
0.0
 30
0.0
  0
VERTEX
  5
374
330
373
100
AcDbEntity
  8
\U+5716\U+5C64 1
 62
     6
370
    25
100
AcDbVertex
100
AcDb2dVertex
 10
82.38624003878371
 20
352.5571796489916
 30
0.0
  0
VERTEX
  5
375
330
373
100
AcDbEntity
  8
\U+5716\U+5C64 1
 62
     6
370
    25
100
AcDbVertex
100
AcDb2dVertex
 10
82.70439481673148
 20
352.8241747252336
 30
0.0
  0
VERTEX
  5
376
330
373
100
AcDbEntity
  8
\U+5716\U+5C64 1
 62
     6
370
    25
100
AcDbVertex
100
AcDb2dVertex
 10
83.06406302266268
 20
353.0317418651508
 30
0.0
  0
VERTEX
  5
377
330
373
100
AcDbEntity
  8
\U+5716\U+5C64 1
 62
     6
370
    25
100
AcDbVertex
100
AcDb2dVertex
 10
83.45422034375184
 20
353.1738521476667
 30
0.0
  0
VERTEX
  5
378
330
373
100
AcDbEntity
  8
\U+5716\U+5C64 1
 62
     6
370
    25
100
AcDbVertex
100
AcDb2dVertex
 10
83.8631534476219
 20
353.2458546908081
 30
0.0
  0
VERTEX
  5
379
330
373
100
AcDbEntity
  8
\U+5716\U+5C64 1
 62
     6
370
    25
100
AcDbVertex
100
AcDb2dVertex
 10
84.27845998234417
 20
353.2458546908081
 30
0.0
  0
VERTEX
  5
37A
330
373
100
AcDbEntity
  8
\U+5716\U+5C64 1
 62
     6
370
    25
100
AcDbVertex
100
AcDb2dVertex
 10
84.68739308621423
 20
353.1738521476667
 30
0.0
  0
VERTEX
  5
37B
330
373
100
AcDbEntity
  8
\U+5716\U+5C64 1
 62
     6
370
    25
100
AcDbVertex
100
AcDb2dVertex
 10
85.07755040730339
 20
353.0317418651508
 30
0.0
  0
VERTEX
  5
37C
330
373
100
AcDbEntity
  8
\U+5716\U+5C64 1
 62
     6
370
    25
100
AcDbVertex
100
AcDb2dVertex
 10
85.43721861323459
 20
352.8241747252336
 30
0.0
  0
VERTEX
  5
37D
330
373
100
AcDbEntity
  8
\U+5716\U+5C64 1
 62
     6
370
    25
100
AcDbVertex
100
AcDb2dVertex
 10
85.75537339118235
 20
352.5571796489916
 30
0.0
  0
SEQEND
  5
37E
330
373
100
AcDbEntity
  8
\U+5716\U+5C64 1
370
    25
  0
POLYLINE
  5
37F
330
357
100
AcDbEntity
  8
\U+5716\U+5C64 1
 62
     6
370
    25
100
AcDb2dPolyline
 66
     1
 10
0.0
 20
0.0
 30
0.0
  0
VERTEX
  5
380
330
37F
100
AcDbEntity
  8
\U+5716\U+5C64 1
 62
     6
370
    25
100
AcDbVertex
100
AcDb2dVertex
 10
85.75537339118235
 20
352.5571796489916
 30
0.0
  0
VERTEX
  5
381
330
37F
100
AcDbEntity
  8
\U+5716\U+5C64 1
 62
     6
370
    25
100
AcDbVertex
100
AcDb2dVertex
 10
104.0955235605793
 20
334.2170294795946
 30
0.0
  0
VERTEX
  5
382
330
37F
100
AcDbEntity
  8
\U+5716\U+5C64 1
 62
     6
370
    25
100
AcDbVertex
100
AcDb2dVertex
 10
104.5166867614901
 20
334.2170294795946
 30
0.0
  0
VERTEX
  5
383
330
37F
100
AcDbEntity
  8
\U+5716\U+5C64 1
 62
     6
370
    25
100
AcDbVertex
100
AcDb2dVertex
 10
105.7800041093347
 20
332.9535398768622
 30
0.0
  0
SEQEND
  5
384
330
37F
100
AcDbEntity
  8
\U+5716\U+5C64 1
370
    25
  0
POLYLINE
  5
385
330
357
100
AcDbEntity
  8
\U+5716\U+5C64 1
 62
     6
370
    25
100
AcDb2dPolyline
 66
     1
 10
0.0
 20
0.0
 30
0.0
  0
VERTEX
  5
386
330
385
100
AcDbEntity
  8
\U+5716\U+5C64 1
 62
     6
370
    25
100
AcDbVertex
100
AcDb2dVertex
 10
105.7800041093347
 20
332.9535398768622
 30
0.0
  0
VERTEX
  5
387
330
385
100
AcDbEntity
  8
\U+5716\U+5C64 1
 62
     6
370
    25
100
AcDbVertex
100
AcDb2dVertex
 10
106.0469991855767
 20
332.6355573538023
 30
0.0
  0
VERTEX
  5
388
330
385
100
AcDbEntity
  8
\U+5716\U+5C64 1
 62
     6
370
    25
100
AcDbVertex
100
AcDb2dVertex
 10
106.2545663254939
 20
332.2758891478711
 30
0.0
  0
VERTEX
  5
389
330
385
100
AcDbEntity
  8
\U+5716\U+5C64 1
 62
     6
370
    25
100
AcDbVertex
100
AcDb2dVertex
 10
106.3966766080098
 20
331.8857318267819
 30
0.0
  0
VERTEX
  5
38A
330
385
100
AcDbEntity
  8
\U+5716\U+5C64 1
 62
     6
370
    25
100
AcDbVertex
100
AcDb2dVertex
 10
106.4686791511512
 20
331.476626468024
 30
0.0
  0
VERTEX
  5
38B
330
385
100
AcDbEntity
  8
\U+5716\U+5C64 1
 62
     6
370
    25
100
AcDbVertex
100
AcDb2dVertex
 10
106.4686791511512
 20
331.0614921881896
 30
0.0
  0
VERTEX
  5
38C
330
385
100
AcDbEntity
  8
\U+5716\U+5C64 1
 62
     6
370
    25
100
AcDbVertex
100
AcDb2dVertex
 10
106.3966766080098
 20
330.6525590843195
 30
0.0
  0
VERTEX
  5
38D
330
385
100
AcDbEntity
  8
\U+5716\U+5C64 1
 62
     6
370
    25
100
AcDbVertex
100
AcDb2dVertex
 10
106.2545663254939
 20
330.2622295083425
 30
0.0
  0
VERTEX
  5
38E
330
385
100
AcDbEntity
  8
\U+5716\U+5C64 1
 62
     6
370
    25
100
AcDbVertex
100
AcDb2dVertex
 10
106.0469991855767
 20
329.9027335572992
 30
0.0
  0
VERTEX
  5
38F
330
385
100
AcDbEntity
  8
\U+5716\U+5C64 1
 62
     6
370
    25
100
AcDbVertex
100
AcDb2dVertex
 10
105.7800041093347
 20
329.5845787793514
 30
0.0
  0
SEQEND
  5
390
330
385
100
AcDbEntity
  8
\U+5716\U+5C64 1
370
    25
  0
POLYLINE
  5
391
330
357
100
AcDbEntity
  8
\U+5716\U+5C64 1
 62
     6
370
    25
100
AcDb2dPolyline
 66
     1
 10
0.0
 20
0.0
 30
0.0
  0
VERTEX
  5
392
330
391
100
AcDbEntity
  8
\U+5716\U+5C64 1
 62
     6
370
    25
100
AcDbVertex
100
AcDb2dVertex
 10
105.7800041093347
 20
329.5845787793514
 30
0.0
  0
VERTEX
  5
393
330
391
100
AcDbEntity
  8
\U+5716\U+5C64 1
 62
     6
370
    25
100
AcDbVertex
100
AcDb2dVertex
 10
87.43985393993772
 20
311.2444286099545
 30
0.0
  0
VERTEX
  5
394
330
391
100
AcDbEntity
  8
\U+5716\U+5C64 1
 62
     6
370
    25
100
AcDbVertex
100
AcDb2dVertex
 10
87.43985393993772
 20
310.8232654090436
 30
0.0
  0
VERTEX
  5
395
330
391
100
AcDbEntity
  8
\U+5716\U+5C64 1
 62
     6
370
    25
100
AcDbVertex
100
AcDb2dVertex
 10
86.17653659209317
 20
309.5599480611991
 30
0.0
  0
SEQEND
  5
396
330
391
100
AcDbEntity
  8
\U+5716\U+5C64 1
370
    25
  0
POLYLINE
  5
397
330
357
100
AcDbEntity
  8
\U+5716\U+5C64 1
 62
     6
370
    25
100
AcDb2dPolyline
 66
     1
 10
0.0
 20
0.0
 30
0.0
  0
VERTEX
  5
398
330
397
100
AcDbEntity
  8
\U+5716\U+5C64 1
 62
     6
370
    25
100
AcDbVertex
100
AcDb2dVertex
 10
86.17653659209317
 20
309.5599480611991
 30
0.0
  0
VERTEX
  5
399
330
397
100
AcDbEntity
  8
\U+5716\U+5C64 1
 62
     6
370
    25
100
AcDbVertex
100
AcDb2dVertex
 10
85.8583818141454
 20
309.2929529849571
 30
0.0
  0
VERTEX
  5
39A
330
397
100
AcDbEntity
  8
\U+5716\U+5C64 1
 62
     6
370
    25
100
AcDbVertex
100
AcDb2dVertex
 10
85.4987136082142
 20
309.085213590152
 30
0.0
  0
VERTEX
  5
39B
330
397
100
AcDbEntity
  8
\U+5716\U+5C64 1
 62
     6
370
    25
100
AcDbVertex
100
AcDb2dVertex
 10
85.10855628712504
 20
308.943275562524
 30
0.0
  0
VERTEX
  5
39C
330
397
100
AcDbEntity
  8
\U+5716\U+5C64 1
 62
     6
370
    25
100
AcDbVertex
100
AcDb2dVertex
 10
84.69962318325499
 20
308.8711007644947
 30
0.0
  0
VERTEX
  5
39D
330
397
100
AcDbEntity
  8
\U+5716\U+5C64 1
 62
     6
370
    25
100
AcDbVertex
100
AcDb2dVertex
 10
84.28431664853271
 20
308.8711007644947
 30
0.0
  0
VERTEX
  5
39E
330
397
100
AcDbEntity
  8
\U+5716\U+5C64 1
 62
     6
370
    25
100
AcDbVertex
100
AcDb2dVertex
 10
83.87538354466265
 20
308.943275562524
 30
0.0
  0
VERTEX
  5
39F
330
397
100
AcDbEntity
  8
\U+5716\U+5C64 1
 62
     6
370
    25
100
AcDbVertex
100
AcDb2dVertex
 10
83.48522622357349
 20
309.085213590152
 30
0.0
  0
VERTEX
  5
3A0
330
397
100
AcDbEntity
  8
\U+5716\U+5C64 1
 62
     6
370
    25
100
AcDbVertex
100
AcDb2dVertex
 10
83.12555801764229
 20
309.2929529849571
 30
0.0
  0
VERTEX
  5
3A1
330
397
100
AcDbEntity
  8
\U+5716\U+5C64 1
 62
     6
370
    25
100
AcDbVertex
100
AcDb2dVertex
 10
82.80740323969454
 20
309.5599480611991
 30
0.0
  0
SEQEND
  5
3A2
330
397
100
AcDbEntity
  8
\U+5716\U+5C64 1
370
    25
  0
ENDBLK
  5
35A
330
357
100
AcDbEntity
  8
0
100
AcDbBlockEnd
  0
BLOCK
  5
3A5
330
3A3
100
AcDbEntity
  8
0
100
AcDbBlockBegin
  2
block 104
 70
     0
 71
     0
 10
0.0
 20
0.0
 30
0.0
  3
block 104
  1

  0
INSERT
  5
3A8
330
3A3
100
AcDbEntity
  8
\U+5716\U+5C64 1
100
AcDbBlockReference
  2
block 105
 10
0.0
 20
0.0
 30
0.0
  0
ENDBLK
  5
3A6
330
3A3
100
AcDbEntity
  8
0
100
AcDbBlockEnd
  0
BLOCK
  5
3A9
330
3A7
100
AcDbEntity
  8
0
100
AcDbBlockBegin
  2
block 105
 70
     0
 71
     0
 10
0.0
 20
0.0
 30
0.0
  3
block 105
  1

  0
INSERT
  5
3AC
330
3A7
100
AcDbEntity
  8
\U+5716\U+5C64 1
100
AcDbBlockReference
  2
block 106
 10
0.0
 20
0.0
 30
0.0
  0
INSERT
  5
3B4
330
3A7
100
AcDbEntity
  8
\U+5716\U+5C64 1
100
AcDbBlockReference
  2
block 107
 10
0.0
 20
0.0
 30
0.0
  0
INSERT
  5
3BC
330
3A7
100
AcDbEntity
  8
\U+5716\U+5C64 1
100
AcDbBlockReference
  2
block 108
 10
0.0
 20
0.0
 30
0.0
  0
INSERT
  5
3C4
330
3A7
100
AcDbEntity
  8
\U+5716\U+5C64 1
100
AcDbBlockReference
  2
block 109
 10
0.0
 20
0.0
 30
0.0
  0
INSERT
  5
3CC
330
3A7
100
AcDbEntity
  8
\U+5716\U+5C64 1
100
AcDbBlockReference
  2
block 110
 10
0.0
 20
0.0
 30
0.0
  0
INSERT
  5
3D4
330
3A7
100
AcDbEntity
  8
\U+5716\U+5C64 1
100
AcDbBlockReference
  2
block 111
 10
0.0
 20
0.0
 30
0.0
  0
INSERT
  5
3DF
330
3A7
100
AcDbEntity
  8
\U+5716\U+5C64 1
100
AcDbBlockReference
  2
block 112
 10
0.0
 20
0.0
 30
0.0
  0
INSERT
  5
3EA
330
3A7
100
AcDbEntity
  8
\U+5716\U+5C64 1
100
AcDbBlockReference
  2
block 113
 10
0.0
 20
0.0
 30
0.0
  0
INSERT
  5
3EF
330
3A7
100
AcDbEntity
  8
\U+5716\U+5C64 1
100
AcDbBlockReference
  2
block 114
 10
0.0
 20
0.0
 30
0.0
  0
INSERT
  5
3F7
330
3A7
100
AcDbEntity
  8
\U+5716\U+5C64 1
100
AcDbBlockReference
  2
block 115
 10
0.0
 20
0.0
 30
0.0
  0
INSERT
  5
3FF
330
3A7
100
AcDbEntity
  8
\U+5716\U+5C64 1
100
AcDbBlockReference
  2
block 116
 10
0.0
 20
0.0
 30
0.0
  0
ENDBLK
  5
3AA
330
3A7
100
AcDbEntity
  8
0
100
AcDbBlockEnd
  0
BLOCK
  5
3AD
330
3AB
100
AcDbEntity
  8
0
100
AcDbBlockBegin
  2
block 106
 70
     0
 71
     0
 10
0.0
 20
0.0
 30
0.0
  3
block 106
  1

  0
POLYLINE
  5
3AF
330
3AB
100
AcDbEntity
  8
\U+5716\U+5C64 1
 62
     2
370
    25
100
AcDb2dPolyline
 66
     1
 10
0.0
 20
0.0
 30
0.0
  0
VERTEX
  5
3B0
330
3AF
100
AcDbEntity
  8
\U+5716\U+5C64 1
 62
     2
370
    25
100
AcDbVertex
100
AcDb2dVertex
 10
204.5723164361956
 20
230.5605836282675
 30
0.0
  0
VERTEX
  5
3B1
330
3AF
100
AcDbEntity
  8
\U+5716\U+5C64 1
 62
     2
370
    25
100
AcDbVertex
100
AcDb2dVertex
 10
232.451081022949
 20
230.5605836282675
 30
0.0
  0
SEQEND
  5
3B2
330
3AF
100
AcDbEntity
  8
\U+5716\U+5C64 1
370
    25
  0
ENDBLK
  5
3AE
330
3AB
100
AcDbEntity
  8
0
100
AcDbBlockEnd
  0
BLOCK
  5
3B5
330
3B3
100
AcDbEntity
  8
0
100
AcDbBlockBegin
  2
block 107
 70
     0
 71
     0
 10
0.0
 20
0.0
 30
0.0
  3
block 107
  1

  0
POLYLINE
  5
3B7
330
3B3
100
AcDbEntity
  8
\U+5716\U+5C64 1
 62
     2
370
    25
100
AcDb2dPolyline
 66
     1
 10
0.0
 20
0.0
 30
0.0
  0
VERTEX
  5
3B8
330
3B7
100
AcDbEntity
  8
\U+5716\U+5C64 1
 62
     2
370
    25
100
AcDbVertex
100
AcDb2dVertex
 10
207.7397393148656
 20
242.3826088396009
 30
0.0
  0
VERTEX
  5
3B9
330
3B7
100
AcDbEntity
  8
\U+5716\U+5C64 1
 62
     2
370
    25
100
AcDbVertex
100
AcDb2dVertex
 10
232.451081022949
 20
242.3826088396009
 30
0.0
  0
SEQEND
  5
3BA
330
3B7
100
AcDbEntity
  8
\U+5716\U+5C64 1
370
    25
  0
ENDBLK
  5
3B6
330
3B3
100
AcDbEntity
  8
0
100
AcDbBlockEnd
  0
BLOCK
  5
3BD
330
3BB
100
AcDbEntity
  8
0
100
AcDbBlockBegin
  2
block 108
 70
     0
 71
     0
 10
0.0
 20
0.0
 30
0.0
  3
block 108
  1

  0
POLYLINE
  5
3BF
330
3BB
100
AcDbEntity
  8
\U+5716\U+5C64 1
 62
     2
370
    25
100
AcDb2dPolyline
 66
     1
 10
0.0
 20
0.0
 30
0.0
  0
VERTEX
  5
3C0
330
3BF
100
AcDbEntity
  8
\U+5716\U+5C64 1
 62
     2
370
    25
100
AcDbVertex
100
AcDb2dVertex
 10
228.7286528954714
 20
226.0938421301823
 30
0.0
  0
VERTEX
  5
3C1
330
3BF
100
AcDbEntity
  8
\U+5716\U+5C64 1
 62
     2
370
    25
100
AcDbVertex
100
AcDb2dVertex
 10
228.7286528954714
 20
221.6271006320971
 30
0.0
  0
SEQEND
  5
3C2
330
3BF
100
AcDbEntity
  8
\U+5716\U+5C64 1
370
    25
  0
ENDBLK
  5
3BE
330
3BB
100
AcDbEntity
  8
0
100
AcDbBlockEnd
  0
BLOCK
  5
3C5
330
3C3
100
AcDbEntity
  8
0
100
AcDbBlockBegin
  2
block 109
 70
     0
 71
     0
 10
0.0
 20
0.0
 30
0.0
  3
block 109
  1

  0
POLYLINE
  5
3C7
330
3C3
100
AcDbEntity
  8
\U+5716\U+5C64 1
 62
     2
370
    25
100
AcDb2dPolyline
 66
     1
 10
0.0
 20
0.0
 30
0.0
  0
VERTEX
  5
3C8
330
3C7
100
AcDbEntity
  8
\U+5716\U+5C64 1
 62
     2
370
    25
100
AcDbVertex
100
AcDb2dVertex
 10
228.7286528954714
 20
246.8493503376862
 30
0.0
  0
VERTEX
  5
3C9
330
3C7
100
AcDbEntity
  8
\U+5716\U+5C64 1
 62
     2
370
    25
100
AcDbVertex
100
AcDb2dVertex
 10
228.7286528954714
 20
268.4387444575047
 30
0.0
  0
SEQEND
  5
3CA
330
3C7
100
AcDbEntity
  8
\U+5716\U+5C64 1
370
    25
  0
ENDBLK
  5
3C6
330
3C3
100
AcDbEntity
  8
0
100
AcDbBlockEnd
  0
BLOCK
  5
3CD
330
3CB
100
AcDbEntity
  8
0
100
AcDbBlockBegin
  2
block 110
 70
     0
 71
     0
 10
0.0
 20
0.0
 30
0.0
  3
block 110
  1

  0
POLYLINE
  5
3CF
330
3CB
100
AcDbEntity
  8
\U+5716\U+5C64 1
 62
     2
370
    25
100
AcDb2dPolyline
 66
     1
 10
0.0
 20
0.0
 30
0.0
  0
VERTEX
  5
3D0
330
3CF
100
AcDbEntity
  8
\U+5716\U+5C64 1
 62
     2
370
    25
100
AcDbVertex
100
AcDb2dVertex
 10
228.7286528954714
 20
230.5605836282675
 30
0.0
  0
VERTEX
  5
3D1
330
3CF
100
AcDbEntity
  8
\U+5716\U+5C64 1
 62
     2
370
    25
100
AcDbVertex
100
AcDb2dVertex
 10
228.7286528954714
 20
242.3826088396009
 30
0.0
  0
SEQEND
  5
3D2
330
3CF
100
AcDbEntity
  8
\U+5716\U+5C64 1
370
    25
  0
ENDBLK
  5
3CE
330
3CB
100
AcDbEntity
  8
0
100
AcDbBlockEnd
  0
BLOCK
  5
3D5
330
3D3
100
AcDbEntity
  8
0
100
AcDbBlockBegin
  2
block 111
 70
     0
 71
     0
 10
0.0
 20
0.0
 30
0.0
  3
block 111
  1

  0
POLYLINE
  5
3D7
330
3D3
100
AcDbEntity
  8
\U+5716\U+5C64 1
370
     0
100
AcDb2dPolyline
 66
     1
 10
0.0
 20
0.0
 30
0.0
  0
VERTEX
  5
3D8
330
3D7
100
AcDbEntity
  8
\U+5716\U+5C64 1
370
     0
100
AcDbVertex
100
AcDb2dVertex
 10
227.9841672699759
 20
226.0938421301823
 30
0.0
  0
VERTEX
  5
3D9
330
3D7
100
AcDbEntity
  8
\U+5716\U+5C64 1
370
     0
100
AcDbVertex
100
AcDb2dVertex
 10
229.4731385209669
 20
226.0938421301823
 30
0.0
  0
VERTEX
  5
3DA
330
3D7
100
AcDbEntity
  8
\U+5716\U+5C64 1
370
     0
100
AcDbVertex
100
AcDb2dVertex
 10
228.7286528954714
 20
230.5605836282675
 30
0.0
  0
VERTEX
  5
3DB
330
3D7
100
AcDbEntity
  8
\U+5716\U+5C64 1
370
     0
100
AcDbVertex
100
AcDb2dVertex
 10
227.9841672699759
 20
226.0938421301823
 30
0.0
  0
SEQEND
  5
3DC
330
3D7
100
AcDbEntity
  8
\U+5716\U+5C64 1
370
     0
  0
HATCH
  5
3DD
330
3D3
100
AcDbEntity
  8
\U+5716\U+5C64 1
 62
     2
100
AcDbHatch
 10
0.0
 20
0.0
 30
0.0
210
0.0
220
0.0
230
1.0
  2
SOLID
 70
     1
 71
     0
 91
        1
 92
        1
 93
        3
 72
     1
 10
227.9841672699759
 20
226.0938421301823
 11
229.4731385209669
 21
226.0938421301823
 72
     1
 10
229.4731385209669
 20
226.0938421301823
 11
228.7286528954714
 21
230.5605836282675
 72
     1
 10
228.7286528954714
 20
230.5605836282675
 11
227.9841672699759
 21
226.0938421301823
 97
        0
 75
     2
 76
     1
 98
        0
  0
ENDBLK
  5
3D6
330
3D3
100
AcDbEntity
  8
0
100
AcDbBlockEnd
  0
BLOCK
  5
3E0
330
3DE
100
AcDbEntity
  8
0
100
AcDbBlockBegin
  2
block 112
 70
     0
 71
     0
 10
0.0
 20
0.0
 30
0.0
  3
block 112
  1

  0
POLYLINE
  5
3E2
330
3DE
100
AcDbEntity
  8
\U+5716\U+5C64 1
370
     0
100
AcDb2dPolyline
 66
     1
 10
0.0
 20
0.0
 30
0.0
  0
VERTEX
  5
3E3
330
3E2
100
AcDbEntity
  8
\U+5716\U+5C64 1
370
     0
100
AcDbVertex
100
AcDb2dVertex
 10
227.9841672699759
 20
246.8493503376862
 30
0.0
  0
VERTEX
  5
3E4
330
3E2
100
AcDbEntity
  8
\U+5716\U+5C64 1
370
     0
100
AcDbVertex
100
AcDb2dVertex
 10
229.4731385209669
 20
246.8493503376862
 30
0.0
  0
VERTEX
  5
3E5
330
3E2
100
AcDbEntity
  8
\U+5716\U+5C64 1
370
     0
100
AcDbVertex
100
AcDb2dVertex
 10
228.7286528954714
 20
242.3826088396009
 30
0.0
  0
VERTEX
  5
3E6
330
3E2
100
AcDbEntity
  8
\U+5716\U+5C64 1
370
     0
100
AcDbVertex
100
AcDb2dVertex
 10
227.9841672699759
 20
246.8493503376862
 30
0.0
  0
SEQEND
  5
3E7
330
3E2
100
AcDbEntity
  8
\U+5716\U+5C64 1
370
     0
  0
HATCH
  5
3E8
330
3DE
100
AcDbEntity
  8
\U+5716\U+5C64 1
 62
     2
100
AcDbHatch
 10
0.0
 20
0.0
 30
0.0
210
0.0
220
0.0
230
1.0
  2
SOLID
 70
     1
 71
     0
 91
        1
 92
        1
 93
        3
 72
     1
 10
227.9841672699759
 20
246.8493503376862
 11
229.4731385209669
 21
246.8493503376862
 72
     1
 10
229.4731385209669
 20
246.8493503376862
 11
228.7286528954714
 21
242.3826088396009
 72
     1
 10
228.7286528954714
 20
242.3826088396009
 11
227.9841672699759
 21
246.8493503376862
 97
        0
 75
     2
 76
     1
 98
        0
  0
ENDBLK
  5
3E1
330
3DE
100
AcDbEntity
  8
0
100
AcDbBlockEnd
  0
BLOCK
  5
3EB
330
3E9
100
AcDbEntity
  8
0
100
AcDbBlockBegin
  2
block 113
 70
     0
 71
     0
 10
0.0
 20
0.0
 30
0.0
  3
block 113
  1

  0
MTEXT
  5
3ED
330
3E9
100
AcDbEntity
  8
\U+5716\U+5C64 1
 62
     2
100
AcDbMText
 10
226.8676110866205
 20
252.4326480191268
 30
0.0
 40
4.466755305391086
 41
0.0
 71
     7
 72
     1
  1
\fAdobe Ming Std L|b0|i0|c0|p34;\W1;3.97
 11
-4.371139000186241E-8
 21
0.999999999999999
 31
0.0
 73
     1
 44
1.0
  0
ENDBLK
  5
3EC
330
3E9
100
AcDbEntity
  8
0
100
AcDbBlockEnd
  0
BLOCK
  5
3F0
330
3EE
100
AcDbEntity
  8
0
100
AcDbBlockBegin
  2
block 114
 70
     0
 71
     0
 10
0.0
 20
0.0
 30
0.0
  3
block 114
  1

  0
POLYLINE
  5
3F2
330
3EE
100
AcDbEntity
  8
\U+5716\U+5C64 1
370
     0
100
AcDb2dPolyline
 66
     1
 10
0.0
 20
0.0
 30
0.0
  0
VERTEX
  5
3F3
330
3F2
100
AcDbEntity
  8
\U+5716\U+5C64 1
370
     0
100
AcDbVertex
100
AcDb2dVertex
 10
202.7109301175689
 20
230.5605836282675
 30
0.0
  0
VERTEX
  5
3F4
330
3F2
100
AcDbEntity
  8
\U+5716\U+5C64 1
370
     0
100
AcDbVertex
100
AcDb2dVertex
 10
202.7109301175689
 20
230.5605836282675
 30
0.0
  0
SEQEND
  5
3F5
330
3F2
100
AcDbEntity
  8
\U+5716\U+5C64 1
370
     0
  0
ENDBLK
  5
3F1
330
3EE
100
AcDbEntity
  8
0
100
AcDbBlockEnd
  0
BLOCK
  5
3F8
330
3F6
100
AcDbEntity
  8
0
100
AcDbBlockBegin
  2
block 115
 70
     0
 71
     0
 10
0.0
 20
0.0
 30
0.0
  3
block 115
  1

  0
POLYLINE
  5
3FA
330
3F6
100
AcDbEntity
  8
\U+5716\U+5C64 1
370
     0
100
AcDb2dPolyline
 66
     1
 10
0.0
 20
0.0
 30
0.0
  0
VERTEX
  5
3FB
330
3FA
100
AcDbEntity
  8
\U+5716\U+5C64 1
370
     0
100
AcDbVertex
100
AcDb2dVertex
 10
205.8786975060147
 20
242.3826088396009
 30
0.0
  0
VERTEX
  5
3FC
330
3FA
100
AcDbEntity
  8
\U+5716\U+5C64 1
370
     0
100
AcDbVertex
100
AcDb2dVertex
 10
205.8786975060147
 20
242.3826088396009
 30
0.0
  0
SEQEND
  5
3FD
330
3FA
100
AcDbEntity
  8
\U+5716\U+5C64 1
370
     0
  0
ENDBLK
  5
3F9
330
3F6
100
AcDbEntity
  8
0
100
AcDbBlockEnd
  0
BLOCK
  5
400
330
3FE
100
AcDbEntity
  8
0
100
AcDbBlockBegin
  2
block 116
 70
     0
 71
     0
 10
0.0
 20
0.0
 30
0.0
  3
block 116
  1

  0
POLYLINE
  5
402
330
3FE
100
AcDbEntity
  8
\U+5716\U+5C64 1
370
     0
100
AcDb2dPolyline
 66
     1
 10
0.0
 20
0.0
 30
0.0
  0
VERTEX
  5
403
330
402
100
AcDbEntity
  8
\U+5716\U+5C64 1
370
     0
100
AcDbVertex
100
AcDb2dVertex
 10
228.7286528954714
 20
242.3826088396009
 30
0.0
  0
VERTEX
  5
404
330
402
100
AcDbEntity
  8
\U+5716\U+5C64 1
370
     0
100
AcDbVertex
100
AcDb2dVertex
 10
228.7286528954714
 20
242.3826088396009
 30
0.0
  0
SEQEND
  5
405
330
402
100
AcDbEntity
  8
\U+5716\U+5C64 1
370
     0
  0
ENDBLK
  5
401
330
3FE
100
AcDbEntity
  8
0
100
AcDbBlockEnd
  0
BLOCK
  5
408
330
406
100
AcDbEntity
  8
0
100
AcDbBlockBegin
  2
block 117
 70
     0
 71
     0
 10
0.0
 20
0.0
 30
0.0
  3
block 117
  1

  0
POLYLINE
  5
40A
330
406
100
AcDbEntity
  8
\U+5716\U+5C64 1
370
     0
100
AcDb2dPolyline
 66
     1
 10
0.0
 20
0.0
 30
0.0
  0
VERTEX
  5
40B
330
40A
100
AcDbEntity
  8
\U+5716\U+5C64 1
370
     0
100
AcDbVertex
100
AcDb2dVertex
 10
195.8886030274774
 20
230.5616171575949
 30
0.0
  0
VERTEX
  5
40C
330
40A
100
AcDbEntity
  8
\U+5716\U+5C64 1
370
     0
100
AcDbVertex
100
AcDb2dVertex
 10
202.7109301175689
 20
230.5616171575949
 30
0.0
  0
VERTEX
  5
40D
330
40A
100
AcDbEntity
  8
\U+5716\U+5C64 1
370
     0
100
AcDbVertex
100
AcDb2dVertex
 10
205.3295489233956
 20
240.3327756736138
 30
0.0
  0
VERTEX
  5
40E
330
40A
100
AcDbEntity
  8
\U+5716\U+5C64 1
370
     0
100
AcDbVertex
100
AcDb2dVertex
 10
205.5810410597268
 20
242.3827810944888
 30
0.0
  0
VERTEX
  5
40F
330
40A
100
AcDbEntity
  8
\U+5716\U+5C64 1
370
     0
100
AcDbVertex
100
AcDb2dVertex
 10
205.491124008244
 20
242.3827810944888
 30
0.0
  0
VERTEX
  5
410
330
40A
100
AcDbEntity
  8
\U+5716\U+5C64 1
370
     0
100
AcDbVertex
100
AcDb2dVertex
 10
198.9027190559181
 20
243.3367286636685
 30
0.0
  0
VERTEX
  5
411
330
40A
100
AcDbEntity
  8
\U+5716\U+5C64 1
370
     0
100
AcDbVertex
100
AcDb2dVertex
 10
198.2701991075563
 20
243.3367286636685
 30
0.0
  0
VERTEX
  5
412
330
40A
100
AcDbEntity
  8
\U+5716\U+5C64 1
370
     0
100
AcDbVertex
100
AcDb2dVertex
 10
198.2701991075563
 20
240.9520319956074
 30
0.0
  0
VERTEX
  5
413
330
40A
100
AcDbEntity
  8
\U+5716\U+5C64 1
370
     0
100
AcDbVertex
100
AcDb2dVertex
 10
195.8886030274774
 20
236.4852904975221
 30
0.0
  0
VERTEX
  5
414
330
40A
100
AcDbEntity
  8
\U+5716\U+5C64 1
370
     0
100
AcDbVertex
100
AcDb2dVertex
 10
195.8886030274774
 20
230.5616171575949
 30
0.0
  0
SEQEND
  5
415
330
40A
100
AcDbEntity
  8
\U+5716\U+5C64 1
370
     0
  0
POLYLINE
  5
416
330
406
100
AcDbEntity
  8
\U+5716\U+5C64 1
370
     0
100
AcDb2dPolyline
 66
     1
 10
0.0
 20
0.0
 30
0.0
  0
VERTEX
  5
417
330
416
100
AcDbEntity
  8
\U+5716\U+5C64 1
370
     0
100
AcDbVertex
100
AcDb2dVertex
 10
175.9628466149786
 20
230.5616171575949
 30
0.0
  0
VERTEX
  5
418
330
416
100
AcDbEntity
  8
\U+5716\U+5C64 1
370
     0
100
AcDbVertex
100
AcDb2dVertex
 10
182.7851737050701
 20
230.5616171575949
 30
0.0
  0
VERTEX
  5
419
330
416
100
AcDbEntity
  8
\U+5716\U+5C64 1
370
     0
100
AcDbVertex
100
AcDb2dVertex
 10
182.7851737050701
 20
236.4852904975221
 30
0.0
  0
VERTEX
  5
41A
330
416
100
AcDbEntity
  8
\U+5716\U+5C64 1
370
     0
100
AcDbVertex
100
AcDb2dVertex
 10
180.4032331152154
 20
240.9520319956074
 30
0.0
  0
VERTEX
  5
41B
330
416
100
AcDbEntity
  8
\U+5716\U+5C64 1
370
     0
100
AcDbVertex
100
AcDb2dVertex
 10
180.4032331152154
 20
243.3367286636685
 30
0.0
  0
VERTEX
  5
41C
330
416
100
AcDbEntity
  8
\U+5716\U+5C64 1
370
     0
100
AcDbVertex
100
AcDb2dVertex
 10
179.7707131668537
 20
243.3367286636685
 30
0.0
  0
VERTEX
  5
41D
330
416
100
AcDbEntity
  8
\U+5716\U+5C64 1
370
     0
100
AcDbVertex
100
AcDb2dVertex
 10
173.1826527243035
 20
242.3827810944888
 30
0.0
  0
VERTEX
  5
41E
330
416
100
AcDbEntity
  8
\U+5716\U+5C64 1
370
     0
100
AcDbVertex
100
AcDb2dVertex
 10
173.0923911630449
 20
242.3827810944888
 30
0.0
  0
VERTEX
  5
41F
330
416
100
AcDbEntity
  8
\U+5716\U+5C64 1
370
     0
100
AcDbVertex
100
AcDb2dVertex
 10
173.3442278091519
 20
240.3327756736138
 30
0.0
  0
VERTEX
  5
420
330
416
100
AcDbEntity
  8
\U+5716\U+5C64 1
370
     0
100
AcDbVertex
100
AcDb2dVertex
 10
175.9628466149786
 20
230.5616171575949
 30
0.0
  0
SEQEND
  5
421
330
416
100
AcDbEntity
  8
\U+5716\U+5C64 1
370
     0
  0
POLYLINE
  5
422
330
406
100
AcDbEntity
  8
\U+5716\U+5C64 1
370
     0
100
AcDb2dPolyline
 66
     1
 10
0.0
 20
0.0
 30
0.0
  0
VERTEX
  5
423
330
422
100
AcDbEntity
  8
\U+5716\U+5C64 1
370
     0
100
AcDbVertex
100
AcDb2dVertex
 10
173.4296662335494
 20
240.0156544249934
 30
0.0
  0
VERTEX
  5
424
330
422
100
AcDbEntity
  8
\U+5716\U+5C64 1
370
     0
100
AcDbVertex
100
AcDb2dVertex
 10
174.9958076743187
 20
241.5802455717717
 30
0.0
  0
SEQEND
  5
425
330
422
100
AcDbEntity
  8
\U+5716\U+5C64 1
370
     0
  0
POLYLINE
  5
426
330
406
100
AcDbEntity
  8
\U+5716\U+5C64 1
370
     0
100
AcDb2dPolyline
 66
     1
 10
0.0
 20
0.0
 30
0.0
  0
VERTEX
  5
427
330
426
100
AcDbEntity
  8
\U+5716\U+5C64 1
370
     0
100
AcDbVertex
100
AcDb2dVertex
 10
174.2775047917837
 20
236.8518488989693
 30
0.0
  0
VERTEX
  5
428
330
426
100
AcDbEntity
  8
\U+5716\U+5C64 1
370
     0
100
AcDbVertex
100
AcDb2dVertex
 10
180.4032331152154
 20
242.9760269284099
 30
0.0
  0
SEQEND
  5
429
330
426
100
AcDbEntity
  8
\U+5716\U+5C64 1
370
     0
  0
POLYLINE
  5
42A
330
406
100
AcDbEntity
  8
\U+5716\U+5C64 1
370
     0
100
AcDb2dPolyline
 66
     1
 10
0.0
 20
0.0
 30
0.0
  0
VERTEX
  5
42B
330
42A
100
AcDbEntity
  8
\U+5716\U+5C64 1
370
     0
100
AcDbVertex
100
AcDb2dVertex
 10
175.1253433500181
 20
233.6878711180572
 30
0.0
  0
VERTEX
  5
42C
330
42A
100
AcDbEntity
  8
\U+5716\U+5C64 1
370
     0
100
AcDbVertex
100
AcDb2dVertex
 10
181.3223851970396
 20
239.8849129650787
 30
0.0
  0
SEQEND
  5
42D
330
42A
100
AcDbEntity
  8
\U+5716\U+5C64 1
370
     0
  0
POLYLINE
  5
42E
330
406
100
AcDbEntity
  8
\U+5716\U+5C64 1
370
     0
100
AcDb2dPolyline
 66
     1
 10
0.0
 20
0.0
 30
0.0
  0
VERTEX
  5
42F
330
42E
100
AcDbEntity
  8
\U+5716\U+5C64 1
370
     0
100
AcDbVertex
100
AcDb2dVertex
 10
176.0093554347111
 20
230.5616171575949
 30
0.0
  0
VERTEX
  5
430
330
42E
100
AcDbEntity
  8
\U+5716\U+5C64 1
370
     0
100
AcDbVertex
100
AcDb2dVertex
 10
182.6005164652434
 20
237.1512278941361
 30
0.0
  0
SEQEND
  5
431
330
42E
100
AcDbEntity
  8
\U+5716\U+5C64 1
370
     0
  0
POLYLINE
  5
432
330
406
100
AcDbEntity
  8
\U+5716\U+5C64 1
370
     0
100
AcDb2dPolyline
 66
     1
 10
0.0
 20
0.0
 30
0.0
  0
VERTEX
  5
433
330
432
100
AcDbEntity
  8
\U+5716\U+5C64 1
370
     0
100
AcDbVertex
100
AcDb2dVertex
 10
180.0208272640817
 20
230.5616171575949
 30
0.0
  0
VERTEX
  5
434
330
432
100
AcDbEntity
  8
\U+5716\U+5C64 1
370
     0
100
AcDbVertex
100
AcDb2dVertex
 10
182.7851737050701
 20
233.3242410497044
 30
0.0
  0
SEQEND
  5
435
330
432
100
AcDbEntity
  8
\U+5716\U+5C64 1
370
     0
  0
POLYLINE
  5
436
330
406
100
AcDbEntity
  8
\U+5716\U+5C64 1
370
     0
100
AcDb2dPolyline
 66
     1
 10
0.0
 20
0.0
 30
0.0
  0
VERTEX
  5
437
330
436
100
AcDbEntity
  8
\U+5716\U+5C64 1
370
     0
100
AcDbVertex
100
AcDb2dVertex
 10
197.2642305622315
 20
239.7801819932367
 30
0.0
  0
VERTEX
  5
438
330
436
100
AcDbEntity
  8
\U+5716\U+5C64 1
370
     0
100
AcDbVertex
100
AcDb2dVertex
 10
199.9379709321856
 20
242.4556449120697
 30
0.0
  0
SEQEND
  5
439
330
436
100
AcDbEntity
  8
\U+5716\U+5C64 1
370
     0
  0
POLYLINE
  5
43A
330
406
100
AcDbEntity
  8
\U+5716\U+5C64 1
370
     0
100
AcDb2dPolyline
 66
     1
 10
0.0
 20
0.0
 30
0.0
  0
VERTEX
  5
43B
330
43A
100
AcDbEntity
  8
\U+5716\U+5C64 1
370
     0
100
AcDbVertex
100
AcDb2dVertex
 10
195.8886030274774
 20
234.3944606682152
 30
0.0
  0
VERTEX
  5
43C
330
43A
100
AcDbEntity
  8
\U+5716\U+5C64 1
370
     0
100
AcDbVertex
100
AcDb2dVertex
 10
202.9217701003562
 20
241.4260774471029
 30
0.0
  0
SEQEND
  5
43D
330
43A
100
AcDbEntity
  8
\U+5716\U+5C64 1
370
     0
  0
POLYLINE
  5
43E
330
406
100
AcDbEntity
  8
\U+5716\U+5C64 1
370
     0
100
AcDb2dPolyline
 66
     1
 10
0.0
 20
0.0
 30
0.0
  0
VERTEX
  5
43F
330
43E
100
AcDbEntity
  8
\U+5716\U+5C64 1
370
     0
100
AcDbVertex
100
AcDb2dVertex
 10
196.0660255620124
 20
230.5616171575949
 30
0.0
  0
VERTEX
  5
440
330
43E
100
AcDbEntity
  8
\U+5716\U+5C64 1
370
     0
100
AcDbVertex
100
AcDb2dVertex
 10
205.1435136444657
 20
239.637727200945
 30
0.0
  0
SEQEND
  5
441
330
43E
100
AcDbEntity
  8
\U+5716\U+5C64 1
370
     0
  0
POLYLINE
  5
442
330
406
100
AcDbEntity
  8
\U+5716\U+5C64 1
370
     0
100
AcDb2dPolyline
 66
     1
 10
0.0
 20
0.0
 30
0.0
  0
VERTEX
  5
443
330
442
100
AcDbEntity
  8
\U+5716\U+5C64 1
370
     0
100
AcDbVertex
100
AcDb2dVertex
 10
200.0778419011588
 20
230.5616171575949
 30
0.0
  0
VERTEX
  5
444
330
442
100
AcDbEntity
  8
\U+5716\U+5C64 1
370
     0
100
AcDbVertex
100
AcDb2dVertex
 10
203.6748684702466
 20
234.1588159815706
 30
0.0
  0
SEQEND
  5
445
330
442
100
AcDbEntity
  8
\U+5716\U+5C64 1
370
     0
  0
ENDBLK
  5
409
330
406
100
AcDbEntity
  8
0
100
AcDbBlockEnd
  0
BLOCK
  5
448
330
446
100
AcDbEntity
  8
0
100
AcDbBlockBegin
  2
block 118
 70
     0
 71
     0
 10
0.0
 20
0.0
 30
0.0
  3
block 118
  1

  0
SPLINE
  5
44A
330
446
100
AcDbEntity
  8
\U+5716\U+5C64 1
 62
     6
370
    25
100
AcDbSpline
210
0.0
220
0.0
230
1.0
 70
     8
 71
     3
 72
     8
 73
     4
 74
     0
 42
0.0000000001
 43
0.0000000001
 40
0.0
 40
0.0
 40
0.0
 40
0.0
 40
1.0
 40
1.0
 40
1.0
 40
1.0
 10
62.17781335524415
 20
139.7655489818509
 30
0.0
 10
61.91908651362122
 20
139.006593945772
 30
0.0
 10
62.18900992295752
 20
137.9610067762306
 30
0.0
 10
62.78277252154222
 20
137.4225379966612
 30
0.0
  0
ENDBLK
  5
449
330
446
100
AcDbEntity
  8
0
100
AcDbBlockEnd
  0
BLOCK
  5
44D
330
44B
100
AcDbEntity
  8
0
100
AcDbBlockBegin
  2
block 119
 70
     0
 71
     0
 10
0.0
 20
0.0
 30
0.0
  3
block 119
  1

  0
POLYLINE
  5
44F
330
44B
100
AcDbEntity
  8
\U+5716\U+5C64 1
 62
     5
370
    25
100
AcDb2dPolyline
 66
     1
 10
0.0
 20
0.0
 30
0.0
  0
VERTEX
  5
450
330
44F
100
AcDbEntity
  8
\U+5716\U+5C64 1
 62
     5
370
    25
100
AcDbVertex
100
AcDb2dVertex
 10
73.5209699782209
 20
131.4804333837289
 30
0.0
  0
VERTEX
  5
451
330
44F
100
AcDbEntity
  8
\U+5716\U+5C64 1
 62
     5
370
    25
100
AcDbVertex
100
AcDb2dVertex
 10
83.08766194230472
 20
117.5991009875738
 30
0.0
  0
SEQEND
  5
452
330
44F
100
AcDbEntity
  8
\U+5716\U+5C64 1
370
    25
  0
ENDBLK
  5
44E
330
44B
100
AcDbEntity
  8
0
100
AcDbBlockEnd
  0
BLOCK
  5
455
330
453
100
AcDbEntity
  8
0
100
AcDbBlockBegin
  2
block 120
 70
     0
 71
     0
 10
0.0
 20
0.0
 30
0.0
  3
block 120
  1

  0
POLYLINE
  5
457
330
453
100
AcDbEntity
  8
\U+5716\U+5C64 1
 62
     5
370
    25
100
AcDb2dPolyline
 66
     1
 10
0.0
 20
0.0
 30
0.0
  0
VERTEX
  5
458
330
457
100
AcDbEntity
  8
\U+5716\U+5C64 1
 62
     5
370
    25
100
AcDbVertex
100
AcDb2dVertex
 10
95.01596841947126
 20
131.4432263279429
 30
0.0
  0
VERTEX
  5
459
330
457
100
AcDbEntity
  8
\U+5716\U+5C64 1
 62
     5
370
    25
100
AcDbVertex
100
AcDb2dVertex
 10
85.43739086812249
 20
117.6476768659611
 30
0.0
  0
SEQEND
  5
45A
330
457
100
AcDbEntity
  8
\U+5716\U+5C64 1
370
    25
  0
ENDBLK
  5
456
330
453
100
AcDbEntity
  8
0
100
AcDbBlockEnd
  0
BLOCK
  5
45D
330
45B
100
AcDbEntity
  8
0
100
AcDbBlockBegin
  2
block 121
 70
     0
 71
     0
 10
0.0
 20
0.0
 30
0.0
  3
block 121
  1

  0
POLYLINE
  5
45F
330
45B
100
AcDbEntity
  8
\U+5716\U+5C64 1
 62
     6
370
    25
100
AcDb2dPolyline
 66
     1
 10
0.0
 20
0.0
 30
0.0
  0
VERTEX
  5
460
330
45F
100
AcDbEntity
  8
\U+5716\U+5C64 1
 62
     6
370
    25
100
AcDbVertex
100
AcDb2dVertex
 10
62.78277252154222
 20
137.4225379966612
 30
0.0
  0
VERTEX
  5
461
330
45F
100
AcDbEntity
  8
\U+5716\U+5C64 1
 62
     6
370
    25
100
AcDbVertex
100
AcDb2dVertex
 10
83.41236240599261
 20
116.7929481122108
 30
0.0
  0
SEQEND
  5
462
330
45F
100
AcDbEntity
  8
\U+5716\U+5C64 1
370
    25
  0
ENDBLK
  5
45E
330
45B
100
AcDbEntity
  8
0
100
AcDbBlockEnd
  0
BLOCK
  5
465
330
463
100
AcDbEntity
  8
0
100
AcDbBlockBegin
  2
block 122
 70
     0
 71
     0
 10
0.0
 20
0.0
 30
0.0
  3
block 122
  1

  0
POLYLINE
  5
467
330
463
100
AcDbEntity
  8
\U+5716\U+5C64 1
 62
     6
370
    25
100
AcDb2dPolyline
 66
     1
 10
0.0
 20
0.0
 30
0.0
  0
VERTEX
  5
468
330
467
100
AcDbEntity
  8
\U+5716\U+5C64 1
 62
     6
370
    25
100
AcDbVertex
100
AcDb2dVertex
 10
85.75537339118235
 20
117.3979072785089
 30
0.0
  0
VERTEX
  5
469
330
467
100
AcDbEntity
  8
\U+5716\U+5C64 1
 62
     6
370
    25
100
AcDbVertex
100
AcDb2dVertex
 10
106.3849632756327
 20
138.0274971629593
 30
0.0
  0
SEQEND
  5
46A
330
467
100
AcDbEntity
  8
\U+5716\U+5C64 1
370
    25
  0
ENDBLK
  5
466
330
463
100
AcDbEntity
  8
0
100
AcDbBlockEnd
  0
BLOCK
  5
46D
330
46B
100
AcDbEntity
  8
0
100
AcDbBlockBegin
  2
block 123
 70
     0
 71
     0
 10
0.0
 20
0.0
 30
0.0
  3
block 123
  1

  0
SPLINE
  5
46F
330
46B
100
AcDbEntity
  8
\U+5716\U+5C64 1
 62
     6
370
    25
100
AcDbSpline
210
0.0
220
0.0
230
1.0
 70
     8
 71
     3
 72
     8
 73
     4
 74
     0
 42
0.0000000001
 43
0.0000000001
 40
0.0
 40
0.0
 40
0.0
 40
0.0
 40
1.0
 40
1.0
 40
1.0
 40
1.0
 10
83.41236240599261
 20
116.7929481122108
 30
0.0
 10
84.17114518718367
 20
116.5342212705879
 30
0.0
 10
85.21673235672505
 20
116.8039724250363
 30
0.0
 10
85.75537339118235
 20
117.3979072785089
 30
0.0
  0
ENDBLK
  5
46E
330
46B
100
AcDbEntity
  8
0
100
AcDbBlockEnd
  0
BLOCK
  5
472
330
470
100
AcDbEntity
  8
0
100
AcDbBlockBegin
  2
block 124
 70
     0
 71
     0
 10
0.0
 20
0.0
 30
0.0
  3
block 124
  1

  0
POLYLINE
  5
474
330
470
100
AcDbEntity
  8
\U+5716\U+5C64 1
 62
     5
370
    25
100
AcDb2dPolyline
 66
     1
 10
0.0
 20
0.0
 30
0.0
  0
VERTEX
  5
475
330
474
100
AcDbEntity
  8
\U+5716\U+5C64 1
 62
     5
370
    25
100
AcDbVertex
100
AcDb2dVertex
 10
91.69730574922677
 20
128.1359324802997
 30
0.0
  0
VERTEX
  5
476
330
474
100
AcDbEntity
  8
\U+5716\U+5C64 1
 62
     5
370
    25
100
AcDbVertex
100
AcDb2dVertex
 10
105.5786381453818
 20
137.7026244443835
 30
0.0
  0
SEQEND
  5
477
330
474
100
AcDbEntity
  8
\U+5716\U+5C64 1
370
    25
  0
ENDBLK
  5
473
330
470
100
AcDbEntity
  8
0
100
AcDbBlockEnd
  0
BLOCK
  5
47A
330
478
100
AcDbEntity
  8
0
100
AcDbBlockBegin
  2
block 125
 70
     0
 71
     0
 10
0.0
 20
0.0
 30
0.0
  3
block 125
  1

  0
SPLINE
  5
47C
330
478
100
AcDbEntity
  8
\U+5716\U+5C64 1
 62
     5
370
    25
100
AcDbSpline
210
0.0
220
0.0
230
1.0
 70
    11
 71
     3
 72
    23
 73
    19
 74
     0
 42
0.0000000001
 43
0.0000000001
 40
0.0
 40
0.0
 40
0.0
 40
0.0
 40
1.0
 40
1.0
 40
1.0
 40
2.0
 40
2.0
 40
2.0
 40
3.0
 40
3.0
 40
3.0
 40
4.0
 40
4.0
 40
4.0
 40
5.0
 40
5.0
 40
5.0
 40
6.0
 40
6.0
 40
6.0
 40
6.0
 10
97.34984989560242
 20
138.8963508175172
 30
0.0
 10
97.34984989560242
 20
146.1138306204469
 30
0.0
 10
91.49886811836818
 20
151.9649846525691
 30
0.0
 10
84.28138831543843
 20
151.9649846525691
 30
0.0
 10
77.0639085125087
 20
151.9649846525691
 30
0.0
 10
71.21292673527446
 20
146.1138306204469
 30
0.0
 10
71.21292673527446
 20
138.8963508175172
 30
0.0
 10
71.21292673527446
 20
131.6788710145875
 30
0.0
 10
77.0639085125087
 20
125.8280614922411
 30
0.0
 10
84.28138831543843
 20
125.8280614922411
 30
0.0
 10
91.49886811836818
 20
125.8280614922411
 30
0.0
 10
97.34984989560242
 20
131.6788710145875
 30
0.0
 10
97.34984989560242
 20
138.8963508175172
 30
0.0
 10
97.34984989560242
 20
138.8963508175172
 30
0.0
 10
97.34984989560242
 20
138.8963508175172
 30
0.0
 10
97.34984989560242
 20
138.8963508175172
 30
0.0
 10
97.34984989560242
 20
138.8963508175172
 30
0.0
 10
97.34984989560242
 20
138.8963508175172
 30
0.0
 10
97.34984989560242
 20
138.8963508175172
 30
0.0
  0
ENDBLK
  5
47B
330
478
100
AcDbEntity
  8
0
100
AcDbBlockEnd
  0
BLOCK
  5
47F
330
47D
100
AcDbEntity
  8
0
100
AcDbBlockBegin
  2
block 126
 70
     0
 71
     0
 10
0.0
 20
0.0
 30
0.0
  3
block 126
  1

  0
POLYLINE
  5
481
330
47D
100
AcDbEntity
  8
\U+5716\U+5C64 1
 62
     5
370
    25
100
AcDb2dPolyline
 66
     1
 10
0.0
 20
0.0
 30
0.0
  0
VERTEX
  5
482
330
481
100
AcDbEntity
  8
\U+5716\U+5C64 1
 62
     5
370
    25
100
AcDbVertex
100
AcDb2dVertex
 10
91.73468505990066
 20
149.63093092155
 30
0.0
  0
VERTEX
  5
483
330
481
100
AcDbEntity
  8
\U+5716\U+5C64 1
 62
     5
370
    25
100
AcDbVertex
100
AcDb2dVertex
 10
105.5300622669945
 20
140.0525256250891
 30
0.0
  0
SEQEND
  5
484
330
481
100
AcDbEntity
  8
\U+5716\U+5C64 1
370
    25
  0
ENDBLK
  5
480
330
47D
100
AcDbEntity
  8
0
100
AcDbBlockEnd
  0
BLOCK
  5
487
330
485
100
AcDbEntity
  8
0
100
AcDbBlockBegin
  2
block 127
 70
     0
 71
     0
 10
0.0
 20
0.0
 30
0.0
  3
block 127
  1

  0
POLYLINE
  5
489
330
485
100
AcDbEntity
  8
\U+5716\U+5C64 1
 62
     6
370
    25
100
AcDb2dPolyline
 66
     1
 10
0.0
 20
0.0
 30
0.0
  0
VERTEX
  5
48A
330
489
100
AcDbEntity
  8
\U+5716\U+5C64 1
 62
     6
370
    25
100
AcDbVertex
100
AcDb2dVertex
 10
105.7800041093347
 20
140.370508148149
 30
0.0
  0
VERTEX
  5
48B
330
489
100
AcDbEntity
  8
\U+5716\U+5C64 1
 62
     6
370
    25
100
AcDbVertex
100
AcDb2dVertex
 10
85.15041422488427
 20
161.0000980325994
 30
0.0
  0
SEQEND
  5
48C
330
489
100
AcDbEntity
  8
\U+5716\U+5C64 1
370
    25
  0
ENDBLK
  5
488
330
485
100
AcDbEntity
  8
0
100
AcDbBlockEnd
  0
BLOCK
  5
48F
330
48D
100
AcDbEntity
  8
0
100
AcDbBlockBegin
  2
block 128
 70
     0
 71
     0
 10
0.0
 20
0.0
 30
0.0
  3
block 128
  1

  0
MTEXT
  5
491
330
48D
100
AcDbEntity
  8
\U+5716\U+5C64 1
 62
     4
100
AcDbMText
 10
79.04449521356088
 20
146.8038837013667
 30
0.0
 40
2.977837022778073
 41
0.0
 71
     7
 72
     1
  1
\fDFKai-SB|b0|i0|c0|p34;\W1;Nine9
 73
     1
 44
1.0
  0
ENDBLK
  5
490
330
48D
100
AcDbEntity
  8
0
100
AcDbBlockEnd
  0
BLOCK
  5
494
330
492
100
AcDbEntity
  8
0
100
AcDbBlockBegin
  2
block 129
 70
     0
 71
     0
 10
0.0
 20
0.0
 30
0.0
  3
block 129
  1

  0
POLYLINE
  5
496
330
492
100
AcDbEntity
  8
\U+5716\U+5C64 1
 62
     5
370
    25
100
AcDb2dPolyline
 66
     1
 10
0.0
 20
0.0
 30
0.0
  0
VERTEX
  5
497
330
496
100
AcDbEntity
  8
\U+5716\U+5C64 1
 62
     5
370
    25
100
AcDbVertex
100
AcDb2dVertex
 10
73.54680821140562
 20
146.3498198168673
 30
0.0
  0
VERTEX
  5
498
330
496
100
AcDbEntity
  8
\U+5716\U+5C64 1
 62
     5
370
    25
100
AcDbVertex
100
AcDb2dVertex
 10
83.12538576275439
 20
160.1450247690733
 30
0.0
  0
SEQEND
  5
499
330
496
100
AcDbEntity
  8
\U+5716\U+5C64 1
370
    25
  0
ENDBLK
  5
495
330
492
100
AcDbEntity
  8
0
100
AcDbBlockEnd
  0
BLOCK
  5
49C
330
49A
100
AcDbEntity
  8
0
100
AcDbBlockBegin
  2
block 130
 70
     0
 71
     0
 10
0.0
 20
0.0
 30
0.0
  3
block 130
  1

  0
POLYLINE
  5
49E
330
49A
100
AcDbEntity
  8
\U+5716\U+5C64 1
 62
     6
370
    25
100
AcDb2dPolyline
 66
     1
 10
0.0
 20
0.0
 30
0.0
  0
VERTEX
  5
49F
330
49E
100
AcDbEntity
  8
\U+5716\U+5C64 1
 62
     6
370
    25
100
AcDbVertex
100
AcDb2dVertex
 10
82.80740323969454
 20
160.3951388663013
 30
0.0
  0
VERTEX
  5
4A0
330
49E
100
AcDbEntity
  8
\U+5716\U+5C64 1
 62
     6
370
    25
100
AcDbVertex
100
AcDb2dVertex
 10
62.17781335524415
 20
139.7655489818509
 30
0.0
  0
SEQEND
  5
4A1
330
49E
100
AcDbEntity
  8
\U+5716\U+5C64 1
370
    25
  0
ENDBLK
  5
49D
330
49A
100
AcDbEntity
  8
0
100
AcDbBlockEnd
  0
BLOCK
  5
4A4
330
4A2
100
AcDbEntity
  8
0
100
AcDbBlockBegin
  2
block 131
 70
     0
 71
     0
 10
0.0
 20
0.0
 30
0.0
  3
block 131
  1

  0
SPLINE
  5
4A6
330
4A2
100
AcDbEntity
  8
\U+5716\U+5C64 1
 62
     6
370
    25
100
AcDbSpline
210
0.0
220
0.0
230
1.0
 70
    11
 71
     3
 72
    23
 73
    19
 74
     0
 42
0.0000000001
 43
0.0000000001
 40
0.0
 40
0.0
 40
0.0
 40
0.0
 40
1.0
 40
1.0
 40
1.0
 40
2.0
 40
2.0
 40
2.0
 40
3.0
 40
3.0
 40
3.0
 40
4.0
 40
4.0
 40
4.0
 40
5.0
 40
5.0
 40
5.0
 40
6.0
 40
6.0
 40
6.0
 40
6.0
 10
90.83258621197838
 20
138.8963508175172
 30
0.0
 10
90.83258621197838
 20
142.5147369927043
 30
0.0
 10
87.8996022357377
 20
145.4475487140571
 30
0.0
 10
84.28138831543843
 20
145.4475487140571
 30
0.0
 10
80.66317439513918
 20
145.4475487140571
 30
0.0
 10
77.73019041889849
 20
142.5147369927043
 30
0.0
 10
77.73019041889849
 20
138.8963508175172
 30
0.0
 10
77.73019041889849
 20
135.2783091521058
 30
0.0
 10
80.66317439513918
 20
132.3451529209773
 30
0.0
 10
84.28138831543843
 20
132.3451529209773
 30
0.0
 10
87.8996022357377
 20
132.3451529209773
 30
0.0
 10
90.83258621197838
 20
135.2783091521058
 30
0.0
 10
90.83258621197838
 20
138.8963508175172
 30
0.0
 10
90.83258621197838
 20
138.8963508175172
 30
0.0
 10
90.83258621197838
 20
138.8963508175172
 30
0.0
 10
90.83258621197838
 20
138.8963508175172
 30
0.0
 10
90.83258621197838
 20
138.8963508175172
 30
0.0
 10
90.83258621197838
 20
138.8963508175172
 30
0.0
 10
90.83258621197838
 20
138.8963508175172
 30
0.0
  0
ENDBLK
  5
4A5
330
4A2
100
AcDbEntity
  8
0
100
AcDbBlockEnd
  0
BLOCK
  5
4A9
330
4A7
100
AcDbEntity
  8
0
100
AcDbBlockBegin
  2
block 132
 70
     0
 71
     0
 10
0.0
 20
0.0
 30
0.0
  3
block 132
  1

  0
POLYLINE
  5
4AB
330
4A7
100
AcDbEntity
  8
\U+5716\U+5C64 1
 62
     5
370
    25
100
AcDb2dPolyline
 66
     1
 10
0.0
 20
0.0
 30
0.0
  0
VERTEX
  5
4AC
330
4AB
100
AcDbEntity
  8
\U+5716\U+5C64 1
 62
     5
370
    25
100
AcDbVertex
100
AcDb2dVertex
 10
76.86547088165011
 20
149.6567691547347
 30
0.0
  0
VERTEX
  5
4AD
330
4AB
100
AcDbEntity
  8
\U+5716\U+5C64 1
 62
     5
370
    25
100
AcDbVertex
100
AcDb2dVertex
 10
62.98413848549508
 20
140.0900771906509
 30
0.0
  0
SEQEND
  5
4AE
330
4AB
100
AcDbEntity
  8
\U+5716\U+5C64 1
370
    25
  0
ENDBLK
  5
4AA
330
4A7
100
AcDbEntity
  8
0
100
AcDbBlockEnd
  0
BLOCK
  5
4B1
330
4AF
100
AcDbEntity
  8
0
100
AcDbBlockBegin
  2
block 133
 70
     0
 71
     0
 10
0.0
 20
0.0
 30
0.0
  3
block 133
  1

  0
POLYLINE
  5
4B3
330
4AF
100
AcDbEntity
  8
\U+5716\U+5C64 1
 62
     5
370
    25
100
AcDb2dPolyline
 66
     1
 10
0.0
 20
0.0
 30
0.0
  0
VERTEX
  5
4B4
330
4B3
100
AcDbEntity
  8
\U+5716\U+5C64 1
 62
     5
370
    25
100
AcDbVertex
100
AcDb2dVertex
 10
76.82809157097623
 20
128.1617707134844
 30
0.0
  0
VERTEX
  5
4B5
330
4B3
100
AcDbEntity
  8
\U+5716\U+5C64 1
 62
     5
370
    25
100
AcDbVertex
100
AcDb2dVertex
 10
63.03271436388234
 20
137.740520519721
 30
0.0
  0
SEQEND
  5
4B6
330
4B3
100
AcDbEntity
  8
\U+5716\U+5C64 1
370
    25
  0
ENDBLK
  5
4B2
330
4AF
100
AcDbEntity
  8
0
100
AcDbBlockEnd
  0
BLOCK
  5
4B9
330
4B7
100
AcDbEntity
  8
0
100
AcDbBlockBegin
  2
block 134
 70
     0
 71
     0
 10
0.0
 20
0.0
 30
0.0
  3
block 134
  1

  0
MTEXT
  5
4BB
330
4B7
100
AcDbEntity
  8
\U+5716\U+5C64 1
 62
     4
100
AcDbMText
 10
80.0866372853443
 20
128.4900885298181
 30
0.0
 40
2.977837022778073
 41
0.0
 71
     7
 72
     1
  1
\fDFKai-SB|b0|i0|c0|p34;\W1;NC60
 73
     1
 44
1.0
  0
ENDBLK
  5
4BA
330
4B7
100
AcDbEntity
  8
0
100
AcDbBlockEnd
  0
BLOCK
  5
4BE
330
4BC
100
AcDbEntity
  8
0
100
AcDbBlockBegin
  2
block 135
 70
     0
 71
     0
 10
0.0
 20
0.0
 30
0.0
  3
block 135
  1

  0
MTEXT
  5
4C0
330
4BC
100
AcDbEntity
  8
\U+5716\U+5C64 1
 62
     4
100
AcDbMText
 10
94.95137283650948
 20
134.7019442971988
 30
0.0
 40
2.977837022778073
 41
0.0
 71
     7
 72
     1
  1
\fDFKai-SB|b0|i0|c0|p34;\W1;T3CT
 11
-4.371139000186241E-8
 21
0.999999999999999
 31
0.0
 73
     1
 44
1.0
  0
ENDBLK
  5
4BF
330
4BC
100
AcDbEntity
  8
0
100
AcDbBlockEnd
  0
BLOCK
  5
4C3
330
4C1
100
AcDbEntity
  8
0
100
AcDbBlockBegin
  2
block 136
 70
     0
 71
     0
 10
0.0
 20
0.0
 30
0.0
  3
block 136
  1

  0
POLYLINE
  5
4C5
330
4C1
100
AcDbEntity
  8
\U+5716\U+5C64 1
 62
     5
370
    25
100
AcDb2dPolyline
 66
     1
 10
0.0
 20
0.0
 30
0.0
  0
VERTEX
  5
4C6
330
4C5
100
AcDbEntity
  8
\U+5716\U+5C64 1
 62
     5
370
    25
100
AcDbVertex
100
AcDb2dVertex
 10
95.04180665265598
 20
146.3122682513055
 30
0.0
  0
VERTEX
  5
4C7
330
4C5
100
AcDbEntity
  8
\U+5716\U+5C64 1
 62
     5
370
    25
100
AcDbVertex
100
AcDb2dVertex
 10
85.47511468857216
 20
160.1936006474606
 30
0.0
  0
SEQEND
  5
4C8
330
4C5
100
AcDbEntity
  8
\U+5716\U+5C64 1
370
    25
  0
ENDBLK
  5
4C4
330
4C1
100
AcDbEntity
  8
0
100
AcDbBlockEnd
  0
BLOCK
  5
4CB
330
4C9
100
AcDbEntity
  8
0
100
AcDbBlockBegin
  2
block 137
 70
     0
 71
     0
 10
0.0
 20
0.0
 30
0.0
  3
block 137
  1

  0
SPLINE
  5
4CD
330
4C9
100
AcDbEntity
  8
\U+5716\U+5C64 1
 62
     6
370
    25
100
AcDbSpline
210
0.0
220
0.0
230
1.0
 70
     8
 71
     3
 72
     8
 73
     4
 74
     0
 42
0.0000000001
 43
0.0000000001
 40
0.0
 40
0.0
 40
0.0
 40
0.0
 40
1.0
 40
1.0
 40
1.0
 40
1.0
 10
85.15041422488427
 20
161.0000980325994
 30
0.0
 10
84.39163144369321
 20
161.2588248742223
 30
0.0
 10
83.34604427415184
 20
160.9887292099981
 30
0.0
 10
82.80740323969454
 20
160.3951388663013
 30
0.0
  0
ENDBLK
  5
4CC
330
4C9
100
AcDbEntity
  8
0
100
AcDbBlockEnd
  0
BLOCK
  5
4D0
330
4CE
100
AcDbEntity
  8
0
100
AcDbBlockBegin
  2
block 138
 70
     0
 71
     0
 10
0.0
 20
0.0
 30
0.0
  3
block 138
  1

  0
SPLINE
  5
4D2
330
4CE
100
AcDbEntity
  8
\U+5716\U+5C64 1
 62
     6
370
    25
100
AcDbSpline
210
0.0
220
0.0
230
1.0
 70
     8
 71
     3
 72
     8
 73
     4
 74
     0
 42
0.0000000001
 43
0.0000000001
 40
0.0
 40
0.0
 40
0.0
 40
0.0
 40
1.0
 40
1.0
 40
1.0
 40
1.0
 10
106.3849632756327
 20
138.0274971629593
 30
0.0
 10
106.6436901172557
 20
138.7861076892624
 30
0.0
 10
106.3737667079194
 20
139.8316948588038
 30
0.0
 10
105.7800041093347
 20
140.370508148149
 30
0.0
  0
ENDBLK
  5
4D1
330
4CE
100
AcDbEntity
  8
0
100
AcDbBlockEnd
  0
BLOCK
  5
4D5
330
4D3
100
AcDbEntity
  8
0
100
AcDbBlockBegin
  2
block 139
 70
     0
 71
     0
 10
0.0
 20
0.0
 30
0.0
  3
block 139
  1

  0
MTEXT
  5
4D7
330
4D3
100
AcDbEntity
  8
\U+5716\U+5C64 1
 62
     4
100
AcDbMText
 10
190.2479444683667
 20
12.65763367252704
 30
0.0
 40
5.037669988730154
 41
0.0
 71
     7
 72
     1
  1
\fDFKai-SB|b0|i0|c0|p34;\W1;Jimmore International Corp.
 73
     1
 44
1.0
  0
ENDBLK
  5
4D6
330
4D3
100
AcDbEntity
  8
0
100
AcDbBlockEnd
  0
ENDSEC
  0
SECTION
  2
ENTITIES
  0
INSERT
  5
3D
330
1F
100
AcDbEntity
  8
\U+5716\U+5C64 1
100
AcDbBlockReference
  2
block 2
 10
0.0
 20
0.0
 30
0.0
  0
INSERT
  5
4D4
330
1F
100
AcDbEntity
  8
\U+5716\U+5C64 1
100
AcDbBlockReference
  2
block 139
 10
0.0
 20
0.0
 30
0.0
  0
ENDSEC
  0
SECTION
  2
OBJECTS
  0
DICTIONARY
  5
C
330
0
100
AcDbDictionary
281
     1
  3
ACAD_GROUP
350
D
  3
ACAD_LAYOUT
350
1A
  3
ACAD_MLINESTYLE
350
17
  3
ACAD_PLOTSETTINGS
350
19
  3
ACAD_PLOTSTYLENAME
350
E
  3
ACAD_TABLESTYLE
350
4D8
  3
ACAD_VISUALSTYLE
350
2A
  0
DICTIONARY
  5
D
102
{ACAD_REACTORS
330
C
102
}
330
C
100
AcDbDictionary
281
     1
  0
DICTIONARY
  5
1A
102
{ACAD_REACTORS
330
C
102
}
330
C
100
AcDbDictionary
281
     1
  3
Layout1
350
1E
  3
Layout2
350
26
  3
Model
350
22
  0
DICTIONARY
  5
17
102
{ACAD_REACTORS
330
C
102
}
330
C
100
AcDbDictionary
281
     1
  3
Standard
350
18
  0
DICTIONARY
  5
19
102
{ACAD_REACTORS
330
C
102
}
330
C
100
AcDbDictionary
281
     1
  0
ACDBDICTIONARYWDFLT
  5
E
102
{ACAD_REACTORS
330
C
102
}
330
C
100
AcDbDictionary
281
     1
  3
Normal
350
F
100
AcDbDictionaryWithDefault
340
F
  0
DICTIONARY
  5
4D8
102
{ACAD_REACTORS
330
C
102
}
330
C
100
AcDbDictionary
281
     1
  0
DICTIONARY
  5
2A
102
{ACAD_REACTORS
330
C
102
}
330
C
100
AcDbDictionary
281
     1
  3
2dWireframe
350
2F
  3
3D Hidden
350
31
  3
3dWireframe
350
30
  3
Basic
350
32
  3
Brighten
350
36
  3
ColorChange
350
3A
  3
Conceptual
350
34
  3
Dim
350
35
  3
Facepattern
350
39
  3
Flat
350
2B
  3
FlatWithEdges
350
2C
  3
Gouraud
350
2D
  3
GouraudWithEdges
350
2E
  3
Linepattern
350
38
  3
Realistic
350
33
  3
Thicken
350
37
  0
LAYOUT
  5
1E
102
{ACAD_REACTORS
330
1A
102
}
330
1A
100
AcDbPlotSettings
  1

  2
none_device
  4

  6

 40
0.0
 41
0.0
 42
0.0
 43
0.0
 44
0.0
 45
0.0
 46
0.0
 47
0.0
 48
0.0
 49
0.0
140
0.0
141
0.0
142
1.0
143
1.0
 70
   688
 72
     0
 73
     0
 74
     5
  7

 75
    16
147
1.0
148
0.0
149
0.0
100
AcDbLayout
  1
Layout1
 70
     1
 71
     1
 10
0.0
 20
0.0
 11
12.0
 21
9.0
 12
0.0
 22
0.0
 32
0.0
 14
1.000000000000000E+20
 24
1.000000000000000E+20
 34
1.000000000000000E+20
 15
-1.000000000000000E+20
 25
-1.000000000000000E+20
 35
-1.000000000000000E+20
146
0.0
 13
0.0
 23
0.0
 33
0.0
 16
1.0
 26
0.0
 36
0.0
 17
0.0
 27
1.0
 37
0.0
 76
     0
330
1B
  0
LAYOUT
  5
26
102
{ACAD_REACTORS
330
1A
102
}
330
1A
100
AcDbPlotSettings
  1

  2
none_device
  4

  6

 40
0.0
 41
0.0
 42
0.0
 43
0.0
 44
0.0
 45
0.0
 46
0.0
 47
0.0
 48
0.0
 49
0.0
140
0.0
141
0.0
142
1.0
143
1.0
 70
   688
 72
     0
 73
     0
 74
     5
  7

 75
    16
147
1.0
148
0.0
149
0.0
100
AcDbLayout
  1
Layout2
 70
     1
 71
     2
 10
0.0
 20
0.0
 11
0.0
 21
0.0
 12
0.0
 22
0.0
 32
0.0
 14
0.0
 24
0.0
 34
0.0
 15
0.0
 25
0.0
 35
0.0
146
0.0
 13
0.0
 23
0.0
 33
0.0
 16
1.0
 26
0.0
 36
0.0
 17
0.0
 27
1.0
 37
0.0
 76
     0
330
23
  0
LAYOUT
  5
22
102
{ACAD_REACTORS
330
1A
102
}
330
1A
100
AcDbPlotSettings
  1

  2
none_device
  4

  6

 40
0.0
 41
0.0
 42
0.0
 43
0.0
 44
0.0
 45
0.0
 46
0.0
 47
0.0
 48
0.0
 49
0.0
140
0.0
141
0.0
142
1.0
143
1.0
 70
  1712
 72
     0
 73
     0
 74
     0
  7

 75
     0
147
1.0
148
0.0
149
0.0
100
AcDbLayout
  1
Model
 70
     1
 71
     0
 10
0.0
 20
0.0
 11
12.0
 21
9.0
 12
0.0
 22
0.0
 32
0.0
 14
1.000000000000000E+20
 24
1.000000000000000E+20
 34
1.000000000000000E+20
 15
-1.000000000000000E+20
 25
-1.000000000000000E+20
 35
-1.000000000000000E+20
146
0.0
 13
0.0
 23
0.0
 33
0.0
 16
1.0
 26
0.0
 36
0.0
 17
0.0
 27
1.0
 37
0.0
 76
     0
330
1F
331
29
  0
MLINESTYLE
  5
18
102
{ACAD_REACTORS
330
17
102
}
330
17
100
AcDbMlineStyle
  2
Standard
 70
     0
  3

 62
   256
 51
90.0
 52
90.0
 71
     2
 49
0.5
 62
   256
  6
BYLAYER
 49
-0.5
 62
   256
  6
BYLAYER
  0
ACDBPLACEHOLDER
  5
F
102
{ACAD_REACTORS
330
E
102
}
330
E
  0
VISUALSTYLE
  5
2F
102
{ACAD_REACTORS
330
2A
102
}
330
2A
100
AcDbVisualStyle
  2
2dWireframe
 70
     4
 71
     0
 72
     2
 73
     0
 90
        0
 40
-0.6
 41
-30.0
 62
     5
 63
     7
 74
     1
 91
        4
 64
     7
 65
   257
 75
     1
175
     1
 42
1.0
 92
        0
 66
   257
 43
1.0
 76
     1
 77
     6
 78
     2
 67
     7
 79
     5
170
     0
171
     0
290
     0
174
     0
 93
        1
 44
0.0
173
     0
291
     0
 45
0.0
1001
ACAD
1000
AcDbSavedByObjectVersion
1070
     0
  0
VISUALSTYLE
  5
31
102
{ACAD_REACTORS
330
2A
102
}
330
2A
100
AcDbVisualStyle
  2
3D Hidden
 70
     6
 71
     1
 72
     2
 73
     2
 90
        0
 40
-0.6
 41
-30.0
 62
     5
 63
     7
 74
     2
 91
        2
 64
     7
 65
   257
 75
     2
175
     1
 42
40.0
 92
        0
 66
   257
 43
1.0
 76
     1
 77
     6
 78
     2
 67
     7
 79
     3
170
     0
171
     0
290
     0
174
     0
 93
        1
 44
0.0
173
     0
291
     0
 45
0.0
1001
ACAD
1000
AcDbSavedByObjectVersion
1070
     0
  0
VISUALSTYLE
  5
30
102
{ACAD_REACTORS
330
2A
102
}
330
2A
100
AcDbVisualStyle
  2
3dWireframe
 70
     5
 71
     0
 72
     2
 73
     0
 90
        0
 40
-0.6
 41
-30.0
 62
     5
 63
     7
 74
     1
 91
        4
 64
     7
 65
   257
 75
     1
175
     1
 42
1.0
 92
        0
 66
   257
 43
1.0
 76
     1
 77
     6
 78
     2
 67
     7
 79
     5
170
     0
171
     0
290
     0
174
     0
 93
        1
 44
0.0
173
     0
291
     0
 45
0.0
1001
ACAD
1000
AcDbSavedByObjectVersion
1070
     0
  0
VISUALSTYLE
  5
32
102
{ACAD_REACTORS
330
2A
102
}
330
2A
100
AcDbVisualStyle
  2
Basic
 70
     7
 71
     1
 72
     0
 73
     1
 90
        0
 40
-0.6
 41
-30.0
 62
     5
 63
     7
 74
     0
 91
        4
 64
     7
 65
   257
 75
     1
175
     1
 42
1.0
 92
        8
 66
     7
 43
1.0
 76
     1
 77
     6
 78
     2
 67
     7
 79
     5
170
     0
171
     0
290
     0
174
     0
 93
        1
 44
0.0
173
     0
291
     1
 45
0.0
1001
ACAD
1000
AcDbSavedByObjectVersion
1070
     0
  0
VISUALSTYLE
  5
36
102
{ACAD_REACTORS
330
2A
102
}
330
2A
100
AcDbVisualStyle
  2
Brighten
 70
    12
 71
     2
 72
     2
 73
     0
 90
        0
 40
-0.6
 41
-30.0
 62
     5
 63
     7
 74
     1
 91
        4
 64
     7
 65
   257
 75
     1
175
     1
 42
1.0
 92
        8
 66
     7
 43
1.0
 76
     1
 77
     6
 78
     2
 67
     7
 79
     5
170
     0
171
     0
290
     0
174
     0
 93
        1
 44
50.0
173
     0
291
     1
 45
0.0
1001
ACAD
1000
AcDbSavedByObjectVersion
1070
     0
  0
VISUALSTYLE
  5
3A
102
{ACAD_REACTORS
330
2A
102
}
330
2A
100
AcDbVisualStyle
  2
ColorChange
 70
    16
 71
     2
 72
     2
 73
     3
 90
        0
 40
-0.6
 41
-30.0
 62
     5
 63
     8
 74
     1
 91
        4
 64
     7
 65
   257
 75
     1
175
     1
 42
1.0
 92
        8
 66
     8
 43
1.0
 76
     1
 77
     6
 78
     2
 67
     7
 79
     5
170
     0
171
     0
290
     0
174
     0
 93
        1
 44
0.0
173
     0
291
     1
 45
0.0
1001
ACAD
1000
AcDbSavedByObjectVersion
1070
     0
  0
VISUALSTYLE
  5
34
102
{ACAD_REACTORS
330
2A
102
}
330
2A
100
AcDbVisualStyle
  2
Conceptual
 70
     9
 71
     3
 72
     2
 73
     0
 90
        0
 40
-0.6
 41
-30.0
 62
     5
 63
     7
 74
     2
 91
        2
 64
     7
 65
   257
 75
     1
175
     1
 42
40.0
 92
        8
 66
     7
 43
1.0
 76
     1
 77
     6
 78
     2
 67
     7
 79
     3
170
     0
171
     0
290
     0
174
     0
 93
        1
 44
0.0
173
     0
291
     0
 45
0.0
1001
ACAD
1000
AcDbSavedByObjectVersion
1070
     0
  0
VISUALSTYLE
  5
35
102
{ACAD_REACTORS
330
2A
102
}
330
2A
100
AcDbVisualStyle
  2
Dim
 70
    11
 71
     2
 72
     2
 73
     0
 90
        0
 40
-0.6
 41
-30.0
 62
     5
 63
     7
 74
     1
 91
        4
 64
     7
 65
   257
 75
     1
175
     1
 42
1.0
 92
        8
 66
     7
 43
1.0
 76
     1
 77
     6
 78
     2
 67
     7
 79
     5
170
     0
171
     0
290
     0
174
     0
 93
        1
 44
-50.0
173
     0
291
     1
 45
0.0
1001
ACAD
1000
AcDbSavedByObjectVersion
1070
     0
  0
VISUALSTYLE
  5
39
102
{ACAD_REACTORS
330
2A
102
}
330
2A
100
AcDbVisualStyle
  2
Facepattern
 70
    15
 71
     2
 72
     2
 73
     0
 90
        0
 40
-0.6
 41
-30.0
 62
     5
 63
     7
 74
     1
 91
        4
 64
     7
 65
   257
 75
     1
175
     1
 42
1.0
 92
        8
 66
     7
 43
1.0
 76
     1
 77
     6
 78
     2
 67
     7
 79
     5
170
     0
171
     0
290
     0
174
     0
 93
        1
 44
0.0
173
     0
291
     1
 45
0.0
1001
ACAD
1000
AcDbSavedByObjectVersion
1070
     0
  0
VISUALSTYLE
  5
2B
102
{ACAD_REACTORS
330
2A
102
}
330
2A
100
AcDbVisualStyle
  2
Flat
 70
     0
 71
     2
 72
     1
 73
     1
 90
        2
 40
-0.6
 41
30.0
 62
     5
 63
     7
 74
     0
 91
        4
 64
     7
 65
   257
 75
     1
175
     1
 42
1.0
 92
        8
 66
     7
 43
1.0
 76
     1
 77
     6
 78
     2
 67
     7
 79
     5
170
     0
171
     0
290
     0
174
     0
 93
       13
 44
0.0
173
     0
291
     1
 45
0.0
1001
ACAD
1000
AcDbSavedByObjectVersion
1070
     0
  0
VISUALSTYLE
  5
2C
102
{ACAD_REACTORS
330
2A
102
}
330
2A
100
AcDbVisualStyle
  2
FlatWithEdges
 70
     1
 71
     2
 72
     1
 73
     1
 90
        2
 40
-0.6
 41
30.0
 62
     5
 63
     7
 74
     1
 91
        4
 64
     7
 65
   257
 75
     1
175
     1
 42
1.0
 92
        0
 66
   257
 43
1.0
 76
     1
 77
     6
 78
     2
 67
     7
 79
     5
170
     0
171
     0
290
     0
174
     0
 93
       13
 44
0.0
173
     0
291
     1
 45
0.0
1001
ACAD
1000
AcDbSavedByObjectVersion
1070
     0
  0
VISUALSTYLE
  5
2D
102
{ACAD_REACTORS
330
2A
102
}
330
2A
100
AcDbVisualStyle
  2
Gouraud
 70
     2
 71
     2
 72
     2
 73
     1
 90
        2
 40
-0.6
 41
30.0
 62
     5
 63
     7
 74
     0
 91
        4
 64
     7
 65
   257
 75
     1
175
     1
 42
1.0
 92
        0
 66
     7
 43
1.0
 76
     1
 77
     6
 78
     2
 67
     7
 79
     5
170
     0
171
     0
290
     0
174
     0
 93
       13
 44
0.0
173
     0
291
     1
 45
0.0
1001
ACAD
1000
AcDbSavedByObjectVersion
1070
     0
  0
VISUALSTYLE
  5
2E
102
{ACAD_REACTORS
330
2A
102
}
330
2A
100
AcDbVisualStyle
  2
GouraudWithEdges
 70
     3
 71
     2
 72
     2
 73
     1
 90
        2
 40
-0.6
 41
30.0
 62
     5
 63
     7
 74
     1
 91
        4
 64
     7
 65
   257
 75
     1
175
     1
 42
1.0
 92
        0
 66
   257
 43
1.0
 76
     1
 77
     6
 78
     2
 67
     7
 79
     5
170
     0
171
     0
290
     0
174
     0
 93
       13
 44
0.0
173
     0
291
     1
 45
0.0
1001
ACAD
1000
AcDbSavedByObjectVersion
1070
     0
  0
VISUALSTYLE
  5
38
102
{ACAD_REACTORS
330
2A
102
}
330
2A
100
AcDbVisualStyle
  2
Linepattern
 70
    14
 71
     2
 72
     2
 73
     0
 90
        0
 40
-0.6
 41
-30.0
 62
     5
 63
     7
 74
     1
 91
        4
 64
     7
 65
   257
 75
     7
175
     7
 42
1.0
 92
        8
 66
     7
 43
1.0
 76
     1
 77
     6
 78
     2
 67
     7
 79
     5
170
     0
171
     0
290
     0
174
     0
 93
        1
 44
0.0
173
     0
291
     1
 45
0.0
1001
ACAD
1000
AcDbSavedByObjectVersion
1070
     0
  0
VISUALSTYLE
  5
33
102
{ACAD_REACTORS
330
2A
102
}
330
2A
100
AcDbVisualStyle
  2
Realistic
 70
     8
 71
     2
 72
     2
 73
     0
 90
        0
 40
-0.6
 41
-30.0
 62
     5
 63
     7
 74
     1
 91
        0
 64
     7
 65
   257
 75
     1
175
     1
 42
1.0
 92
        8
 66
     8
 43
1.0
 76
     1
 77
     6
 78
     2
 67
     7
 79
     5
170
     0
171
     0
290
     0
174
     0
 93
       13
 44
0.0
173
     0
291
     0
 45
0.0
1001
ACAD
1000
AcDbSavedByObjectVersion
1070
     0
  0
VISUALSTYLE
  5
37
102
{ACAD_REACTORS
330
2A
102
}
330
2A
100
AcDbVisualStyle
  2
Thicken
 70
    13
 71
     2
 72
     2
 73
     0
 90
        0
 40
-0.6
 41
-30.0
 62
     5
 63
     7
 74
     1
 91
        4
 64
     7
 65
   257
 75
     1
175
     1
 42
1.0
 92
       12
 66
     7
 43
1.0
 76
     1
 77
     6
 78
     2
 67
     7
 79
     5
170
     0
171
     0
290
     0
174
     0
 93
        1
 44
0.0
173
     0
291
     1
 45
0.0
1001
ACAD
1000
AcDbSavedByObjectVersion
1070
     0
  0
ENDSEC
  0
EOF
